ISO-10303-21;
HEADER;
/* Generated by software containing ST-Developer
 * from STEP Tools, Inc. (www.steptools.com) 
 */

FILE_DESCRIPTION(
/* description */ (''),
/* implementation_level */ '2;1');

FILE_NAME(
/* name */ 
'\\\\Tske00\\w\\Work\\TOSTE\\\X2\7D99624B\X0\\\02_\X2\6EB663A5\X0\\\\X2\6EB663A5752830C130FC30BA\X0\\\
T-8\\T-8 50\X\D725.stp',
/* time_stamp */ '2022-04-12T16:36:09+09:00',
/* author */ ('3dcad-eng'),
/* organization */ (''),
/* preprocessor_version */ 'ST-DEVELOPER v18.1',
/* originating_system */ 'Autodesk Inventor 2022',
/* authorisation */ '');

FILE_SCHEMA (('AUTOMOTIVE_DESIGN { 1 0 10303 214 3 1 1 }'));
ENDSEC;

DATA;
#10=MECHANICAL_DESIGN_GEOMETRIC_PRESENTATION_REPRESENTATION('',(#13),#355);
#11=SHAPE_REPRESENTATION_RELATIONSHIP('SRR','None',#362,#12);
#12=ADVANCED_BREP_SHAPE_REPRESENTATION('',(#14),#354);
#13=STYLED_ITEM('',(#371),#14);
#14=MANIFOLD_SOLID_BREP('\X2\30BD30EA30C330C9\X0\1',#123);
#15=PLANE('',#150);
#16=PLANE('',#151);
#17=PLANE('',#155);
#18=FACE_BOUND('',#32,.T.);
#19=FACE_BOUND('',#35,.T.);
#20=FACE_BOUND('',#37,.T.);
#21=FACE_BOUND('',#39,.T.);
#22=FACE_BOUND('',#41,.T.);
#23=FACE_OUTER_BOUND('',#30,.T.);
#24=FACE_OUTER_BOUND('',#31,.T.);
#25=FACE_OUTER_BOUND('',#33,.T.);
#26=FACE_OUTER_BOUND('',#34,.T.);
#27=FACE_OUTER_BOUND('',#36,.T.);
#28=FACE_OUTER_BOUND('',#38,.T.);
#29=FACE_OUTER_BOUND('',#40,.T.);
#30=EDGE_LOOP('',(#84,#85,#86,#87,#88));
#31=EDGE_LOOP('',(#89,#90,#91,#92));
#32=EDGE_LOOP('',(#93,#94));
#33=EDGE_LOOP('',(#95,#96,#97,#98,#99));
#34=EDGE_LOOP('',(#100));
#35=EDGE_LOOP('',(#101));
#36=EDGE_LOOP('',(#102));
#37=EDGE_LOOP('',(#103));
#38=EDGE_LOOP('',(#104,#105,#106,#107));
#39=EDGE_LOOP('',(#108,#109));
#40=EDGE_LOOP('',(#110));
#41=EDGE_LOOP('',(#111));
#42=CIRCLE('',#144,29.75);
#43=CIRCLE('',#146,66.9);
#44=CIRCLE('',#147,66.9);
#45=CIRCLE('',#149,31.75);
#46=CIRCLE('',#152,69.9);
#47=CIRCLE('',#154,69.9);
#48=LINE('',#261,#52);
#49=LINE('',#267,#53);
#50=LINE('',#273,#54);
#51=LINE('',#350,#55);
#52=VECTOR('',#160,29.75);
#53=VECTOR('',#167,66.9);
#54=VECTOR('',#174,31.75);
#55=VECTOR('',#185,69.9);
#56=B_SPLINE_CURVE_WITH_KNOTS('',3,(#192,#193,#194,#195,#196,#197,#198,
#199,#200,#201,#202,#203,#204,#205,#206,#207,#208,#209,#210,#211,#212,#213,
#214,#215,#216,#217,#218,#219,#220,#221,#222,#223,#224,#225,#226,#227,#228,
#229,#230,#231,#232,#233,#234,#235,#236,#237,#238,#239,#240,#241),
 .UNSPECIFIED.,.F.,.F.,(4,2,2,2,2,2,2,2,2,2,2,2,2,2,2,2,2,2,2,2,2,2,2,2,
4),(0.,0.569566469837083,1.13913293967417,1.70869940951125,2.27826587934833,
2.84691581693015,3.41556575451197,3.98421569209379,4.55286562967561,5.12151556725743,
5.69016550483924,6.25881544242106,6.82746538000288,7.39703184983997,7.96659831967705,
8.53616478951413,9.10573125935121,9.6752977291883,10.2448641990254,10.8144306688625,
11.3839971386995,11.9526470762814,12.5212970138632,13.089946951445,13.6585968890268),
 .UNSPECIFIED.);
#57=B_SPLINE_CURVE_WITH_KNOTS('',3,(#242,#243,#244,#245,#246,#247,#248,
#249,#250,#251,#252,#253,#254,#255,#256,#257,#258,#259),.UNSPECIFIED.,.F.,
 .F.,(4,2,2,2,2,2,2,2,4),(13.6585968890268,14.2272468266086,14.7958967641905,
15.3645467017723,15.9331966393541,16.5027631091912,17.0723295790283,17.6418960488653,
18.2114625187024),.UNSPECIFIED.);
#58=B_SPLINE_CURVE_WITH_KNOTS('',3,(#275,#276,#277,#278,#279,#280,#281,
#282,#283,#284,#285,#286,#287,#288,#289,#290,#291,#292),.UNSPECIFIED.,.F.,
 .F.,(4,2,2,2,2,2,2,2,4),(0.,0.608360342066045,1.21672068413209,1.82508102619813,
2.43344136826418,3.04072610301411,3.64801083776403,4.25529557251396,4.86258030726389),
 .UNSPECIFIED.);
#59=B_SPLINE_CURVE_WITH_KNOTS('',3,(#293,#294,#295,#296,#297,#298,#299,
#300,#301,#302,#303,#304,#305,#306,#307,#308,#309,#310,#311,#312,#313,#314,
#315,#316,#317,#318,#319,#320,#321,#322,#323,#324,#325,#326,#327,#328,#329,
#330,#331,#332,#333,#334,#335,#336,#337,#338,#339,#340,#341,#342),
 .UNSPECIFIED.,.F.,.F.,(4,2,2,2,2,2,2,2,2,2,2,2,2,2,2,2,2,2,2,2,2,2,2,2,
4),(4.86258030726389,5.46986504201382,6.07714977676375,6.68443451151367,
7.2917192462636,7.90007958832965,8.50843993039569,9.11680027246173,9.72516061452778,
10.3335209565938,10.9418812986599,11.5502416407259,12.158601982792,12.7658867175419,
13.3731714522918,13.9804561870417,14.5877409217917,15.1950256565416,15.8023103912915,
16.4095951260415,17.0168798607914,17.6252402028574,18.2336005449235,18.8419608869895,
19.4503212290556),.UNSPECIFIED.);
#60=VERTEX_POINT('',#190);
#61=VERTEX_POINT('',#191);
#62=VERTEX_POINT('',#260);
#63=VERTEX_POINT('',#264);
#64=VERTEX_POINT('',#266);
#65=VERTEX_POINT('',#270);
#66=VERTEX_POINT('',#272);
#67=VERTEX_POINT('',#274);
#68=VERTEX_POINT('',#345);
#69=VERTEX_POINT('',#348);
#70=EDGE_CURVE('',#60,#61,#56,.T.);
#71=EDGE_CURVE('',#61,#60,#57,.T.);
#72=EDGE_CURVE('',#61,#62,#48,.T.);
#73=EDGE_CURVE('',#62,#62,#42,.T.);
#74=EDGE_CURVE('',#63,#63,#43,.T.);
#75=EDGE_CURVE('',#63,#64,#49,.T.);
#76=EDGE_CURVE('',#64,#64,#44,.T.);
#77=EDGE_CURVE('',#65,#65,#45,.T.);
#78=EDGE_CURVE('',#65,#66,#50,.T.);
#79=EDGE_CURVE('',#67,#66,#58,.T.);
#80=EDGE_CURVE('',#66,#67,#59,.T.);
#81=EDGE_CURVE('',#68,#68,#46,.T.);
#82=EDGE_CURVE('',#69,#69,#47,.T.);
#83=EDGE_CURVE('',#69,#68,#51,.T.);
#84=ORIENTED_EDGE('',*,*,#70,.F.);
#85=ORIENTED_EDGE('',*,*,#71,.F.);
#86=ORIENTED_EDGE('',*,*,#72,.T.);
#87=ORIENTED_EDGE('',*,*,#73,.F.);
#88=ORIENTED_EDGE('',*,*,#72,.F.);
#89=ORIENTED_EDGE('',*,*,#74,.F.);
#90=ORIENTED_EDGE('',*,*,#75,.T.);
#91=ORIENTED_EDGE('',*,*,#76,.F.);
#92=ORIENTED_EDGE('',*,*,#75,.F.);
#93=ORIENTED_EDGE('',*,*,#70,.T.);
#94=ORIENTED_EDGE('',*,*,#71,.T.);
#95=ORIENTED_EDGE('',*,*,#77,.F.);
#96=ORIENTED_EDGE('',*,*,#78,.T.);
#97=ORIENTED_EDGE('',*,*,#79,.F.);
#98=ORIENTED_EDGE('',*,*,#80,.F.);
#99=ORIENTED_EDGE('',*,*,#78,.F.);
#100=ORIENTED_EDGE('',*,*,#77,.T.);
#101=ORIENTED_EDGE('',*,*,#73,.T.);
#102=ORIENTED_EDGE('',*,*,#81,.T.);
#103=ORIENTED_EDGE('',*,*,#74,.T.);
#104=ORIENTED_EDGE('',*,*,#82,.F.);
#105=ORIENTED_EDGE('',*,*,#83,.T.);
#106=ORIENTED_EDGE('',*,*,#81,.F.);
#107=ORIENTED_EDGE('',*,*,#83,.F.);
#108=ORIENTED_EDGE('',*,*,#79,.T.);
#109=ORIENTED_EDGE('',*,*,#80,.T.);
#110=ORIENTED_EDGE('',*,*,#82,.T.);
#111=ORIENTED_EDGE('',*,*,#76,.T.);
#112=CYLINDRICAL_SURFACE('',#143,29.75);
#113=CYLINDRICAL_SURFACE('',#145,66.9);
#114=CYLINDRICAL_SURFACE('',#148,31.75);
#115=CYLINDRICAL_SURFACE('',#153,69.9);
#116=ADVANCED_FACE('',(#23),#112,.F.);
#117=ADVANCED_FACE('',(#24,#18),#113,.F.);
#118=ADVANCED_FACE('',(#25),#114,.T.);
#119=ADVANCED_FACE('',(#26,#19),#15,.T.);
#120=ADVANCED_FACE('',(#27,#20),#16,.F.);
#121=ADVANCED_FACE('',(#28,#21),#115,.T.);
#122=ADVANCED_FACE('',(#29,#22),#17,.T.);
#123=CLOSED_SHELL('',(#116,#117,#118,#119,#120,#121,#122));
#124=DERIVED_UNIT_ELEMENT(#126,1.);
#125=DERIVED_UNIT_ELEMENT(#357,-3.);
#126=(
MASS_UNIT()
NAMED_UNIT(*)
SI_UNIT($,.GRAM.)
);
#127=DERIVED_UNIT((#124,#125));
#128=MEASURE_REPRESENTATION_ITEM('density measure',
POSITIVE_RATIO_MEASURE(1.),#127);
#129=PROPERTY_DEFINITION_REPRESENTATION(#134,#131);
#130=PROPERTY_DEFINITION_REPRESENTATION(#135,#132);
#131=REPRESENTATION('material name',(#133),#354);
#132=REPRESENTATION('density',(#128),#354);
#133=DESCRIPTIVE_REPRESENTATION_ITEM('\X2\4E00822C\X0\','\X2\4E00822C\X0\');
#134=PROPERTY_DEFINITION('material property','material name',#364);
#135=PROPERTY_DEFINITION('material property','density of part',#364);
#136=DATE_TIME_ROLE('creation_date');
#137=APPLIED_DATE_AND_TIME_ASSIGNMENT(#138,#136,(#364));
#138=DATE_AND_TIME(#139,#140);
#139=CALENDAR_DATE(2022,31,3);
#140=LOCAL_TIME(0,0,0.,#141);
#141=COORDINATED_UNIVERSAL_TIME_OFFSET(0,0,.BEHIND.);
#142=AXIS2_PLACEMENT_3D('placement',#188,#156,#157);
#143=AXIS2_PLACEMENT_3D('',#189,#158,#159);
#144=AXIS2_PLACEMENT_3D('',#262,#161,#162);
#145=AXIS2_PLACEMENT_3D('',#263,#163,#164);
#146=AXIS2_PLACEMENT_3D('',#265,#165,#166);
#147=AXIS2_PLACEMENT_3D('',#268,#168,#169);
#148=AXIS2_PLACEMENT_3D('',#269,#170,#171);
#149=AXIS2_PLACEMENT_3D('',#271,#172,#173);
#150=AXIS2_PLACEMENT_3D('',#343,#175,#176);
#151=AXIS2_PLACEMENT_3D('',#344,#177,#178);
#152=AXIS2_PLACEMENT_3D('',#346,#179,#180);
#153=AXIS2_PLACEMENT_3D('',#347,#181,#182);
#154=AXIS2_PLACEMENT_3D('',#349,#183,#184);
#155=AXIS2_PLACEMENT_3D('',#351,#186,#187);
#156=DIRECTION('axis',(0.,0.,1.));
#157=DIRECTION('refdir',(1.,0.,0.));
#158=DIRECTION('center_axis',(0.,0.,1.));
#159=DIRECTION('ref_axis',(1.,0.,0.));
#160=DIRECTION('',(0.,0.,1.));
#161=DIRECTION('center_axis',(0.,0.,-1.));
#162=DIRECTION('ref_axis',(1.,0.,0.));
#163=DIRECTION('center_axis',(1.,0.,0.));
#164=DIRECTION('ref_axis',(0.,1.,0.));
#165=DIRECTION('center_axis',(1.,0.,0.));
#166=DIRECTION('ref_axis',(0.,1.,0.));
#167=DIRECTION('',(1.,0.,0.));
#168=DIRECTION('center_axis',(-1.,0.,0.));
#169=DIRECTION('ref_axis',(0.,1.,0.));
#170=DIRECTION('center_axis',(0.,0.,1.));
#171=DIRECTION('ref_axis',(1.,0.,0.));
#172=DIRECTION('center_axis',(0.,0.,1.));
#173=DIRECTION('ref_axis',(1.,0.,0.));
#174=DIRECTION('',(0.,0.,-1.));
#175=DIRECTION('center_axis',(0.,0.,1.));
#176=DIRECTION('ref_axis',(1.,0.,0.));
#177=DIRECTION('center_axis',(1.,0.,0.));
#178=DIRECTION('ref_axis',(0.,0.,-1.));
#179=DIRECTION('center_axis',(-1.,0.,0.));
#180=DIRECTION('ref_axis',(0.,1.,0.));
#181=DIRECTION('center_axis',(1.,0.,0.));
#182=DIRECTION('ref_axis',(0.,1.,0.));
#183=DIRECTION('center_axis',(1.,0.,0.));
#184=DIRECTION('ref_axis',(0.,1.,0.));
#185=DIRECTION('',(-1.,0.,0.));
#186=DIRECTION('center_axis',(1.,0.,0.));
#187=DIRECTION('ref_axis',(0.,0.,-1.));
#188=CARTESIAN_POINT('',(0.,0.,0.));
#189=CARTESIAN_POINT('Origin',(0.,0.,0.));
#190=CARTESIAN_POINT('',(0.,-29.75,59.9211773916368));
#191=CARTESIAN_POINT('',(-29.75,1.21228179362336E-16,66.9));
#192=CARTESIAN_POINT('Ctrl Pts',(0.,-29.75,59.9211773916368));
#193=CARTESIAN_POINT('Ctrl Pts',(1.89855489945694,-29.75,59.9211773916368));
#194=CARTESIAN_POINT('Ctrl Pts',(3.85162797677322,-29.5653673312553,60.0140015669339));
#195=CARTESIAN_POINT('Ctrl Pts',(7.71771495823625,-28.7990079678271,60.3854988304841));
#196=CARTESIAN_POINT('Ctrl Pts',(9.63083350887702,-28.2175582904313,60.6636541043948));
#197=CARTESIAN_POINT('Ctrl Pts',(13.2856707914819,-26.6922207170732,61.3500999127327));
#198=CARTESIAN_POINT('Ctrl Pts',(15.0308008236487,-25.7471227289536,61.758103115897));
#199=CARTESIAN_POINT('Ctrl Pts',(18.2526001311958,-23.5729058687577,62.6202502222983));
#200=CARTESIAN_POINT('Ctrl Pts',(19.7293225939686,-22.343530886631,63.0735492657189));
#201=CARTESIAN_POINT('Ctrl Pts',(22.3414275270153,-19.7314259535843,63.938804510611));
#202=CARTESIAN_POINT('Ctrl Pts',(23.5705210335262,-18.2557269898364,64.3824936499649));
#203=CARTESIAN_POINT('Ctrl Pts',(25.7456121615119,-15.0334455245001,65.2102183106649));
#204=CARTESIAN_POINT('Ctrl Pts',(26.6917794194328,-13.2868031893916,65.5935749849306));
#205=CARTESIAN_POINT('Ctrl Pts',(28.2183494797982,-9.62886272434217,66.2294588738384));
#206=CARTESIAN_POINT('Ctrl Pts',(28.7999676442628,-7.71419307791544,66.4820809428951));
#207=CARTESIAN_POINT('Ctrl Pts',(29.565914683007,-3.84754468763235,66.8174547646261));
#208=CARTESIAN_POINT('Ctrl Pts',(29.75,-1.8954997919394,66.9));
#209=CARTESIAN_POINT('Ctrl Pts',(29.75,1.8954997919394,66.9));
#210=CARTESIAN_POINT('Ctrl Pts',(29.565914683007,3.84754468763234,66.8174547646261));
#211=CARTESIAN_POINT('Ctrl Pts',(28.7999676442628,7.71419307791544,66.4820809428951));
#212=CARTESIAN_POINT('Ctrl Pts',(28.2183494797982,9.62886272434217,66.2294588738384));
#213=CARTESIAN_POINT('Ctrl Pts',(26.6917794194328,13.2868031893916,65.5935749849306));
#214=CARTESIAN_POINT('Ctrl Pts',(25.7456121615119,15.0334455245001,65.2102183106649));
#215=CARTESIAN_POINT('Ctrl Pts',(23.5705210335262,18.2557269898365,64.3824936499649));
#216=CARTESIAN_POINT('Ctrl Pts',(22.3414275270153,19.7314259535843,63.938804510611));
#217=CARTESIAN_POINT('Ctrl Pts',(19.7293225939686,22.343530886631,63.0735492657189));
#218=CARTESIAN_POINT('Ctrl Pts',(18.2526001311958,23.5729058687577,62.6202502222983));
#219=CARTESIAN_POINT('Ctrl Pts',(15.0308008236487,25.7471227289536,61.758103115897));
#220=CARTESIAN_POINT('Ctrl Pts',(13.2856707914819,26.6922207170732,61.3500999127327));
#221=CARTESIAN_POINT('Ctrl Pts',(9.63083350887703,28.2175582904313,60.6636541043948));
#222=CARTESIAN_POINT('Ctrl Pts',(7.71771495823626,28.7990079678271,60.3854988304841));
#223=CARTESIAN_POINT('Ctrl Pts',(3.85162797677322,29.5653673312553,60.0140015669339));
#224=CARTESIAN_POINT('Ctrl Pts',(1.89855489945694,29.75,59.9211773916368));
#225=CARTESIAN_POINT('Ctrl Pts',(-1.89855489945694,29.75,59.9211773916368));
#226=CARTESIAN_POINT('Ctrl Pts',(-3.85162797677322,29.5653673312553,60.0140015669339));
#227=CARTESIAN_POINT('Ctrl Pts',(-7.71771495823625,28.7990079678271,60.3854988304841));
#228=CARTESIAN_POINT('Ctrl Pts',(-9.63083350887702,28.2175582904313,60.6636541043948));
#229=CARTESIAN_POINT('Ctrl Pts',(-13.2856707914819,26.6922207170731,61.3500999127327));
#230=CARTESIAN_POINT('Ctrl Pts',(-15.0308008236487,25.7471227289536,61.758103115897));
#231=CARTESIAN_POINT('Ctrl Pts',(-18.2526001311958,23.5729058687577,62.6202502222983));
#232=CARTESIAN_POINT('Ctrl Pts',(-19.7293225939686,22.343530886631,63.0735492657189));
#233=CARTESIAN_POINT('Ctrl Pts',(-22.3414275270153,19.7314259535843,63.938804510611));
#234=CARTESIAN_POINT('Ctrl Pts',(-23.5705210335262,18.2557269898365,64.3824936499649));
#235=CARTESIAN_POINT('Ctrl Pts',(-25.7456121615119,15.0334455245001,65.2102183106649));
#236=CARTESIAN_POINT('Ctrl Pts',(-26.6917794194327,13.2868031893916,65.5935749849306));
#237=CARTESIAN_POINT('Ctrl Pts',(-28.2183494797982,9.62886272434217,66.2294588738384));
#238=CARTESIAN_POINT('Ctrl Pts',(-28.7999676442628,7.71419307791544,66.4820809428951));
#239=CARTESIAN_POINT('Ctrl Pts',(-29.565914683007,3.84754468763235,66.8174547646261));
#240=CARTESIAN_POINT('Ctrl Pts',(-29.75,1.8954997919394,66.9));
#241=CARTESIAN_POINT('Ctrl Pts',(-29.75,3.33066907387547E-15,66.9));
#242=CARTESIAN_POINT('Ctrl Pts',(-29.75,3.88578058618805E-15,66.9));
#243=CARTESIAN_POINT('Ctrl Pts',(-29.75,-1.89549979193939,66.9));
#244=CARTESIAN_POINT('Ctrl Pts',(-29.565914683007,-3.84754468763234,66.8174547646261));
#245=CARTESIAN_POINT('Ctrl Pts',(-28.7999676442628,-7.71419307791544,66.4820809428951));
#246=CARTESIAN_POINT('Ctrl Pts',(-28.2183494797982,-9.62886272434216,66.2294588738384));
#247=CARTESIAN_POINT('Ctrl Pts',(-26.6917794194328,-13.2868031893916,65.5935749849306));
#248=CARTESIAN_POINT('Ctrl Pts',(-25.7456121615119,-15.0334455245001,65.2102183106649));
#249=CARTESIAN_POINT('Ctrl Pts',(-23.5705210335262,-18.2557269898364,64.3824936499649));
#250=CARTESIAN_POINT('Ctrl Pts',(-22.3414275270153,-19.7314259535843,63.9388045106111));
#251=CARTESIAN_POINT('Ctrl Pts',(-19.7293225939686,-22.3435308866309,63.0735492657189));
#252=CARTESIAN_POINT('Ctrl Pts',(-18.2526001311958,-23.5729058687576,62.6202502222983));
#253=CARTESIAN_POINT('Ctrl Pts',(-15.0308008236487,-25.7471227289536,61.758103115897));
#254=CARTESIAN_POINT('Ctrl Pts',(-13.2856707914819,-26.6922207170732,61.3500999127327));
#255=CARTESIAN_POINT('Ctrl Pts',(-9.63083350887702,-28.2175582904313,60.6636541043948));
#256=CARTESIAN_POINT('Ctrl Pts',(-7.71771495823624,-28.7990079678271,60.3854988304841));
#257=CARTESIAN_POINT('Ctrl Pts',(-3.85162797677321,-29.5653673312553,60.0140015669339));
#258=CARTESIAN_POINT('Ctrl Pts',(-1.89855489945694,-29.75,59.9211773916368));
#259=CARTESIAN_POINT('Ctrl Pts',(5.55111512312578E-16,-29.75,59.9211773916368));
#260=CARTESIAN_POINT('',(-29.75,3.64332422746338E-15,75.6));
#261=CARTESIAN_POINT('',(-29.75,-3.64332422746338E-15,0.));
#262=CARTESIAN_POINT('Origin',(0.,0.,75.6));
#263=CARTESIAN_POINT('Origin',(0.,0.,0.));
#264=CARTESIAN_POINT('',(-145.,-66.9,-8.19288708629579E-15));
#265=CARTESIAN_POINT('Origin',(-145.,0.,0.));
#266=CARTESIAN_POINT('',(145.,-66.9,8.19288708629579E-15));
#267=CARTESIAN_POINT('',(0.,-66.9,-8.19288708629579E-15));
#268=CARTESIAN_POINT('Origin',(145.,0.,0.));
#269=CARTESIAN_POINT('Origin',(0.,0.,0.));
#270=CARTESIAN_POINT('',(-31.75,-3.88825358729285E-15,75.6));
#271=CARTESIAN_POINT('Origin',(0.,0.,75.6));
#272=CARTESIAN_POINT('',(-31.75,-3.60946133058416E-15,69.9));
#273=CARTESIAN_POINT('',(-31.75,-3.88825358729285E-15,0.));
#274=CARTESIAN_POINT('',(5.55111512312578E-16,-31.75,62.2731683793269));
#275=CARTESIAN_POINT('Ctrl Pts',(5.55111512312578E-16,-31.75,62.2731683793269));
#276=CARTESIAN_POINT('Ctrl Pts',(-2.02786780688681,-31.75,62.2731683793269));
#277=CARTESIAN_POINT('Ctrl Pts',(-4.11334530761332,-31.5526337618137,62.3750775853202));
#278=CARTESIAN_POINT('Ctrl Pts',(-8.2404725014722,-30.7340677525539,62.7824504122401));
#279=CARTESIAN_POINT('Ctrl Pts',(-10.2822399087266,-30.1131703439015,63.0873287474092));
#280=CARTESIAN_POINT('Ctrl Pts',(-14.1821498474369,-28.4849834995448,63.8390135387611));
#281=CARTESIAN_POINT('Ctrl Pts',(-16.0439562855847,-27.4764019067036,64.2854956408335));
#282=CARTESIAN_POINT('Ctrl Pts',(-19.4809792466629,-25.1565626253238,65.2282528361925));
#283=CARTESIAN_POINT('Ctrl Pts',(-21.0562574760937,-23.8450231292521,65.7236092765802));
#284=CARTESIAN_POINT('Ctrl Pts',(-23.8425578002915,-21.0587228050542,66.6685868976816));
#285=CARTESIAN_POINT('Ctrl Pts',(-25.1537638362729,-19.4846477114393,67.1529355672353));
#286=CARTESIAN_POINT('Ctrl Pts',(-27.4746225078571,-16.0470698211117,68.0562987667665));
#287=CARTESIAN_POINT('Ctrl Pts',(-28.4844563494343,-14.1834968225766,68.4745804559612));
#288=CARTESIAN_POINT('Ctrl Pts',(-30.1140909581965,-10.2799504699735,69.1683625035841));
#289=CARTESIAN_POINT('Ctrl Pts',(-30.7351897537152,-8.23635878499072,69.4439741759423));
#290=CARTESIAN_POINT('Ctrl Pts',(-31.5532759492469,-4.10856083284882,69.8099053378045));
#291=CARTESIAN_POINT('Ctrl Pts',(-31.75,-2.02428244916643,69.9));
#292=CARTESIAN_POINT('Ctrl Pts',(-31.75,-3.88578058618805E-15,69.9));
#293=CARTESIAN_POINT('Ctrl Pts',(-31.75,-4.44089209850063E-15,69.9));
#294=CARTESIAN_POINT('Ctrl Pts',(-31.75,2.02428244916642,69.9));
#295=CARTESIAN_POINT('Ctrl Pts',(-31.5532759492469,4.10856083284881,69.8099053378045));
#296=CARTESIAN_POINT('Ctrl Pts',(-30.7351897537152,8.23635878499071,69.4439741759423));
#297=CARTESIAN_POINT('Ctrl Pts',(-30.1140909581965,10.2799504699735,69.1683625035841));
#298=CARTESIAN_POINT('Ctrl Pts',(-28.4844563494343,14.1834968225766,68.4745804559612));
#299=CARTESIAN_POINT('Ctrl Pts',(-27.4746225078571,16.0470698211116,68.0562987667665));
#300=CARTESIAN_POINT('Ctrl Pts',(-25.153763836273,19.4846477114393,67.1529355672353));
#301=CARTESIAN_POINT('Ctrl Pts',(-23.8425578002915,21.0587228050542,66.6685868976816));
#302=CARTESIAN_POINT('Ctrl Pts',(-21.0562574760937,23.8450231292521,65.7236092765802));
#303=CARTESIAN_POINT('Ctrl Pts',(-19.4809792466629,25.1565626253238,65.2282528361925));
#304=CARTESIAN_POINT('Ctrl Pts',(-16.0439562855847,27.4764019067036,64.2854956408335));
#305=CARTESIAN_POINT('Ctrl Pts',(-14.1821498474369,28.4849834995448,63.8390135387611));
#306=CARTESIAN_POINT('Ctrl Pts',(-10.2822399087266,30.1131703439015,63.0873287474092));
#307=CARTESIAN_POINT('Ctrl Pts',(-8.24047250147222,30.7340677525539,62.7824504122401));
#308=CARTESIAN_POINT('Ctrl Pts',(-4.11334530761333,31.5526337618137,62.3750775853202));
#309=CARTESIAN_POINT('Ctrl Pts',(-2.02786780688682,31.75,62.2731683793269));
#310=CARTESIAN_POINT('Ctrl Pts',(2.02786780688681,31.75,62.2731683793269));
#311=CARTESIAN_POINT('Ctrl Pts',(4.11334530761332,31.5526337618137,62.3750775853202));
#312=CARTESIAN_POINT('Ctrl Pts',(8.24047250147219,30.7340677525539,62.7824504122401));
#313=CARTESIAN_POINT('Ctrl Pts',(10.2822399087266,30.1131703439015,63.0873287474092));
#314=CARTESIAN_POINT('Ctrl Pts',(14.1821498474369,28.4849834995448,63.8390135387611));
#315=CARTESIAN_POINT('Ctrl Pts',(16.0439562855847,27.4764019067037,64.2854956408335));
#316=CARTESIAN_POINT('Ctrl Pts',(19.4809792466629,25.1565626253238,65.2282528361925));
#317=CARTESIAN_POINT('Ctrl Pts',(21.0562574760937,23.8450231292521,65.7236092765802));
#318=CARTESIAN_POINT('Ctrl Pts',(23.8425578002915,21.0587228050542,66.6685868976815));
#319=CARTESIAN_POINT('Ctrl Pts',(25.1537638362729,19.4846477114393,67.1529355672353));
#320=CARTESIAN_POINT('Ctrl Pts',(27.4746225078571,16.0470698211117,68.0562987667665));
#321=CARTESIAN_POINT('Ctrl Pts',(28.4844563494343,14.1834968225767,68.4745804559612));
#322=CARTESIAN_POINT('Ctrl Pts',(30.1140909581965,10.2799504699735,69.1683625035841));
#323=CARTESIAN_POINT('Ctrl Pts',(30.7351897537151,8.23635878499073,69.4439741759423));
#324=CARTESIAN_POINT('Ctrl Pts',(31.5532759492469,4.10856083284883,69.8099053378045));
#325=CARTESIAN_POINT('Ctrl Pts',(31.75,2.02428244916644,69.9));
#326=CARTESIAN_POINT('Ctrl Pts',(31.75,-2.02428244916642,69.9));
#327=CARTESIAN_POINT('Ctrl Pts',(31.5532759492469,-4.10856083284881,69.8099053378045));
#328=CARTESIAN_POINT('Ctrl Pts',(30.7351897537152,-8.23635878499071,69.4439741759423));
#329=CARTESIAN_POINT('Ctrl Pts',(30.1140909581965,-10.2799504699735,69.1683625035841));
#330=CARTESIAN_POINT('Ctrl Pts',(28.4844563494343,-14.1834968225766,68.4745804559612));
#331=CARTESIAN_POINT('Ctrl Pts',(27.4746225078571,-16.0470698211116,68.0562987667665));
#332=CARTESIAN_POINT('Ctrl Pts',(25.153763836273,-19.4846477114393,67.1529355672353));
#333=CARTESIAN_POINT('Ctrl Pts',(23.8425578002915,-21.0587228050542,66.6685868976816));
#334=CARTESIAN_POINT('Ctrl Pts',(21.0562574760937,-23.8450231292521,65.7236092765802));
#335=CARTESIAN_POINT('Ctrl Pts',(19.4809792466629,-25.1565626253238,65.2282528361925));
#336=CARTESIAN_POINT('Ctrl Pts',(16.0439562855847,-27.4764019067036,64.2854956408335));
#337=CARTESIAN_POINT('Ctrl Pts',(14.1821498474369,-28.4849834995448,63.8390135387611));
#338=CARTESIAN_POINT('Ctrl Pts',(10.2822399087266,-30.1131703439015,63.0873287474092));
#339=CARTESIAN_POINT('Ctrl Pts',(8.24047250147221,-30.7340677525539,62.7824504122401));
#340=CARTESIAN_POINT('Ctrl Pts',(4.11334530761333,-31.5526337618137,62.3750775853202));
#341=CARTESIAN_POINT('Ctrl Pts',(2.02786780688682,-31.75,62.2731683793269));
#342=CARTESIAN_POINT('Ctrl Pts',(-5.55111512312578E-16,-31.75,62.2731683793269));
#343=CARTESIAN_POINT('Origin',(0.,0.,75.6));
#344=CARTESIAN_POINT('Origin',(-145.,0.,0.));
#345=CARTESIAN_POINT('',(-145.,-69.9,-8.56028112604E-15));
#346=CARTESIAN_POINT('Origin',(-145.,0.,0.));
#347=CARTESIAN_POINT('Origin',(0.,0.,0.));
#348=CARTESIAN_POINT('',(145.,-69.9,-8.56028112604E-15));
#349=CARTESIAN_POINT('Origin',(145.,0.,0.));
#350=CARTESIAN_POINT('',(0.,-69.9,-8.56028112604E-15));
#351=CARTESIAN_POINT('Origin',(145.,0.,0.));
#352=UNCERTAINTY_MEASURE_WITH_UNIT(LENGTH_MEASURE(0.01),#356,
'DISTANCE_ACCURACY_VALUE',
'Maximum model space distance between geometric entities at asserted c
onnectivities');
#353=UNCERTAINTY_MEASURE_WITH_UNIT(LENGTH_MEASURE(0.01),#356,
'DISTANCE_ACCURACY_VALUE',
'Maximum model space distance between geometric entities at asserted c
onnectivities');
#354=(
GEOMETRIC_REPRESENTATION_CONTEXT(3)
GLOBAL_UNCERTAINTY_ASSIGNED_CONTEXT((#352))
GLOBAL_UNIT_ASSIGNED_CONTEXT((#356,#358,#359))
REPRESENTATION_CONTEXT('','3D')
);
#355=(
GEOMETRIC_REPRESENTATION_CONTEXT(3)
GLOBAL_UNCERTAINTY_ASSIGNED_CONTEXT((#353))
GLOBAL_UNIT_ASSIGNED_CONTEXT((#356,#358,#359))
REPRESENTATION_CONTEXT('','3D')
);
#356=(
LENGTH_UNIT()
NAMED_UNIT(*)
SI_UNIT(.MILLI.,.METRE.)
);
#357=(
LENGTH_UNIT()
NAMED_UNIT(*)
SI_UNIT(.CENTI.,.METRE.)
);
#358=(
NAMED_UNIT(*)
PLANE_ANGLE_UNIT()
SI_UNIT($,.RADIAN.)
);
#359=(
NAMED_UNIT(*)
SI_UNIT($,.STERADIAN.)
SOLID_ANGLE_UNIT()
);
#360=SHAPE_DEFINITION_REPRESENTATION(#361,#362);
#361=PRODUCT_DEFINITION_SHAPE('',$,#364);
#362=SHAPE_REPRESENTATION('',(#142),#354);
#363=PRODUCT_DEFINITION_CONTEXT('part definition',#368,'design');
#364=PRODUCT_DEFINITION('T-8 50\X\D725','T-8 50\X\D725',#365,#363);
#365=PRODUCT_DEFINITION_FORMATION('',$,#370);
#366=PRODUCT_RELATED_PRODUCT_CATEGORY('T-8 50\X\D725','T-8 50\X\D725',(#370));
#367=APPLICATION_PROTOCOL_DEFINITION('international standard',
'automotive_design',2009,#368);
#368=APPLICATION_CONTEXT(
'Core Data for Automotive Mechanical Design Process');
#369=PRODUCT_CONTEXT('part definition',#368,'mechanical');
#370=PRODUCT('T-8 50\X\D725','T-8 50\X\D725',$,(#369));
#371=PRESENTATION_STYLE_ASSIGNMENT((#372));
#372=SURFACE_STYLE_USAGE(.BOTH.,#375);
#373=SURFACE_STYLE_RENDERING_WITH_PROPERTIES($,#379,(#374));
#374=SURFACE_STYLE_TRANSPARENT(0.);
#375=SURFACE_SIDE_STYLE('',(#376,#373));
#376=SURFACE_STYLE_FILL_AREA(#377);
#377=FILL_AREA_STYLE('',(#378));
#378=FILL_AREA_STYLE_COLOUR('',#379);
#379=COLOUR_RGB('',0.749019607843137,0.749019607843137,0.749019607843137);
ENDSEC;
END-ISO-10303-21;
