ISO-10303-21;
HEADER;
/* Generated by software containing ST-Developer
 * from STEP Tools, Inc. (www.steptools.com) 
 */

FILE_DESCRIPTION(
/* description */ (''),
/* implementation_level */ '2;1');

FILE_NAME(
/* name */ 
'\\\\Tske00\\w\\Work\\TOSTE\\\X2\7D99624B\X0\\\02_\X2\6EB663A5\X0\\\\X2\6EB663A5752830C130FC30BA\X0\\\
T-8\\T-8 30\X\D715.stp',
/* time_stamp */ '2022-04-28T09:35:00+09:00',
/* author */ ('3dcad-eng'),
/* organization */ (''),
/* preprocessor_version */ 'ST-DEVELOPER v18.1',
/* originating_system */ 'Autodesk Inventor 2022',
/* authorisation */ '');

FILE_SCHEMA (('AUTOMOTIVE_DESIGN { 1 0 10303 214 3 1 1 }'));
ENDSEC;

DATA;
#10=MECHANICAL_DESIGN_GEOMETRIC_PRESENTATION_REPRESENTATION('',(#13),#355);
#11=SHAPE_REPRESENTATION_RELATIONSHIP('SRR','None',#362,#12);
#12=ADVANCED_BREP_SHAPE_REPRESENTATION('',(#14),#354);
#13=STYLED_ITEM('',(#371),#14);
#14=MANIFOLD_SOLID_BREP('\X2\30BD30EA30C330C9\X0\1',#123);
#15=PLANE('',#150);
#16=PLANE('',#151);
#17=PLANE('',#155);
#18=FACE_BOUND('',#32,.T.);
#19=FACE_BOUND('',#35,.T.);
#20=FACE_BOUND('',#37,.T.);
#21=FACE_BOUND('',#39,.T.);
#22=FACE_BOUND('',#41,.T.);
#23=FACE_OUTER_BOUND('',#30,.T.);
#24=FACE_OUTER_BOUND('',#31,.T.);
#25=FACE_OUTER_BOUND('',#33,.T.);
#26=FACE_OUTER_BOUND('',#34,.T.);
#27=FACE_OUTER_BOUND('',#36,.T.);
#28=FACE_OUTER_BOUND('',#38,.T.);
#29=FACE_OUTER_BOUND('',#40,.T.);
#30=EDGE_LOOP('',(#84,#85,#86,#87,#88));
#31=EDGE_LOOP('',(#89,#90,#91,#92));
#32=EDGE_LOOP('',(#93,#94));
#33=EDGE_LOOP('',(#95,#96,#97,#98,#99));
#34=EDGE_LOOP('',(#100));
#35=EDGE_LOOP('',(#101));
#36=EDGE_LOOP('',(#102));
#37=EDGE_LOOP('',(#103));
#38=EDGE_LOOP('',(#104,#105,#106,#107));
#39=EDGE_LOOP('',(#108,#109));
#40=EDGE_LOOP('',(#110));
#41=EDGE_LOOP('',(#111));
#42=CIRCLE('',#144,17.85);
#43=CIRCLE('',#146,36.15);
#44=CIRCLE('',#147,36.15);
#45=CIRCLE('',#149,19.05);
#46=CIRCLE('',#152,38.15);
#47=CIRCLE('',#154,38.15);
#48=LINE('',#261,#52);
#49=LINE('',#267,#53);
#50=LINE('',#273,#54);
#51=LINE('',#350,#55);
#52=VECTOR('',#160,17.85);
#53=VECTOR('',#167,36.15);
#54=VECTOR('',#174,19.05);
#55=VECTOR('',#185,38.15);
#56=B_SPLINE_CURVE_WITH_KNOTS('',3,(#192,#193,#194,#195,#196,#197,#198,
#199,#200,#201,#202,#203,#204,#205,#206,#207,#208,#209,#210,#211,#212,#213,
#214,#215,#216,#217,#218,#219,#220,#221,#222,#223,#224,#225,#226,#227,#228,
#229,#230,#231,#232,#233,#234,#235,#236,#237,#238,#239,#240,#241),
 .UNSPECIFIED.,.F.,.F.,(4,2,2,2,2,2,2,2,2,2,2,2,2,2,2,2,2,2,2,2,2,2,2,2,
4),(0.,0.343315118458148,0.686630236916297,1.02994535537445,1.37326047383259,
1.71569167812552,2.05812288241845,2.40055408671138,2.74298529100432,3.08541649529725,
3.42784769959018,3.77027890388311,4.11271010817604,4.45602522663419,4.79934034509233,
5.14265546355048,5.48597058200863,5.82928570046678,6.17260081892493,6.51591593738307,
6.85923105584122,7.20166226013415,7.54409346442708,7.88652466872001,8.22895587301294),
 .UNSPECIFIED.);
#57=B_SPLINE_CURVE_WITH_KNOTS('',3,(#242,#243,#244,#245,#246,#247,#248,
#249,#250,#251,#252,#253,#254,#255,#256,#257,#258,#259),.UNSPECIFIED.,.F.,
 .F.,(4,2,2,2,2,2,2,2,4),(8.22895587301294,8.57138707730588,8.91381828159881,
9.25624948589174,9.59868069018467,9.94199580864282,10.285310927101,10.6286260455591,
10.9719411640173),.UNSPECIFIED.);
#58=B_SPLINE_CURVE_WITH_KNOTS('',3,(#275,#276,#277,#278,#279,#280,#281,
#282,#283,#284,#285,#286,#287,#288,#289,#290,#291,#292),.UNSPECIFIED.,.F.,
 .F.,(4,2,2,2,2,2,2,2,4),(0.,0.366606550331724,0.733213100663448,1.09981965099517,
1.4664262013269,1.83203933560393,2.19765246988096,2.56326560415799,2.92887873843502),
 .UNSPECIFIED.);
#59=B_SPLINE_CURVE_WITH_KNOTS('',3,(#293,#294,#295,#296,#297,#298,#299,
#300,#301,#302,#303,#304,#305,#306,#307,#308,#309,#310,#311,#312,#313,#314,
#315,#316,#317,#318,#319,#320,#321,#322,#323,#324,#325,#326,#327,#328,#329,
#330,#331,#332,#333,#334,#335,#336,#337,#338,#339,#340,#341,#342),
 .UNSPECIFIED.,.F.,.F.,(4,2,2,2,2,2,2,2,2,2,2,2,2,2,2,2,2,2,2,2,2,2,2,2,
4),(2.92887873843502,3.29449187271205,3.66010500698908,4.02571814126611,
4.39133127554314,4.75793782587486,5.12454437620659,5.49115092653831,5.85775747687003,
6.22436402720176,6.59097057753348,6.95757712786521,7.32418367819693,7.68979681247396,
8.05540994675099,8.42102308102802,8.78663621530505,9.15224934958208,9.51786248385911,
9.88347561813614,10.2490887524132,10.6156953027449,10.9823018530766,11.3489084034083,
11.7155149537401),.UNSPECIFIED.);
#60=VERTEX_POINT('',#190);
#61=VERTEX_POINT('',#191);
#62=VERTEX_POINT('',#260);
#63=VERTEX_POINT('',#264);
#64=VERTEX_POINT('',#266);
#65=VERTEX_POINT('',#270);
#66=VERTEX_POINT('',#272);
#67=VERTEX_POINT('',#274);
#68=VERTEX_POINT('',#345);
#69=VERTEX_POINT('',#348);
#70=EDGE_CURVE('',#60,#61,#56,.T.);
#71=EDGE_CURVE('',#61,#60,#57,.T.);
#72=EDGE_CURVE('',#61,#62,#48,.T.);
#73=EDGE_CURVE('',#62,#62,#42,.T.);
#74=EDGE_CURVE('',#63,#63,#43,.T.);
#75=EDGE_CURVE('',#63,#64,#49,.T.);
#76=EDGE_CURVE('',#64,#64,#44,.T.);
#77=EDGE_CURVE('',#65,#65,#45,.T.);
#78=EDGE_CURVE('',#65,#66,#50,.T.);
#79=EDGE_CURVE('',#67,#66,#58,.T.);
#80=EDGE_CURVE('',#66,#67,#59,.T.);
#81=EDGE_CURVE('',#68,#68,#46,.T.);
#82=EDGE_CURVE('',#69,#69,#47,.T.);
#83=EDGE_CURVE('',#69,#68,#51,.T.);
#84=ORIENTED_EDGE('',*,*,#70,.F.);
#85=ORIENTED_EDGE('',*,*,#71,.F.);
#86=ORIENTED_EDGE('',*,*,#72,.T.);
#87=ORIENTED_EDGE('',*,*,#73,.F.);
#88=ORIENTED_EDGE('',*,*,#72,.F.);
#89=ORIENTED_EDGE('',*,*,#74,.F.);
#90=ORIENTED_EDGE('',*,*,#75,.T.);
#91=ORIENTED_EDGE('',*,*,#76,.F.);
#92=ORIENTED_EDGE('',*,*,#75,.F.);
#93=ORIENTED_EDGE('',*,*,#70,.T.);
#94=ORIENTED_EDGE('',*,*,#71,.T.);
#95=ORIENTED_EDGE('',*,*,#77,.F.);
#96=ORIENTED_EDGE('',*,*,#78,.T.);
#97=ORIENTED_EDGE('',*,*,#79,.F.);
#98=ORIENTED_EDGE('',*,*,#80,.F.);
#99=ORIENTED_EDGE('',*,*,#78,.F.);
#100=ORIENTED_EDGE('',*,*,#77,.T.);
#101=ORIENTED_EDGE('',*,*,#73,.T.);
#102=ORIENTED_EDGE('',*,*,#81,.T.);
#103=ORIENTED_EDGE('',*,*,#74,.T.);
#104=ORIENTED_EDGE('',*,*,#82,.F.);
#105=ORIENTED_EDGE('',*,*,#83,.T.);
#106=ORIENTED_EDGE('',*,*,#81,.F.);
#107=ORIENTED_EDGE('',*,*,#83,.F.);
#108=ORIENTED_EDGE('',*,*,#79,.T.);
#109=ORIENTED_EDGE('',*,*,#80,.T.);
#110=ORIENTED_EDGE('',*,*,#82,.T.);
#111=ORIENTED_EDGE('',*,*,#76,.T.);
#112=CYLINDRICAL_SURFACE('',#143,17.85);
#113=CYLINDRICAL_SURFACE('',#145,36.15);
#114=CYLINDRICAL_SURFACE('',#148,19.05);
#115=CYLINDRICAL_SURFACE('',#153,38.15);
#116=ADVANCED_FACE('',(#23),#112,.F.);
#117=ADVANCED_FACE('',(#24,#18),#113,.F.);
#118=ADVANCED_FACE('',(#25),#114,.T.);
#119=ADVANCED_FACE('',(#26,#19),#15,.T.);
#120=ADVANCED_FACE('',(#27,#20),#16,.F.);
#121=ADVANCED_FACE('',(#28,#21),#115,.T.);
#122=ADVANCED_FACE('',(#29,#22),#17,.T.);
#123=CLOSED_SHELL('',(#116,#117,#118,#119,#120,#121,#122));
#124=DERIVED_UNIT_ELEMENT(#126,1.);
#125=DERIVED_UNIT_ELEMENT(#357,-3.);
#126=(
MASS_UNIT()
NAMED_UNIT(*)
SI_UNIT($,.GRAM.)
);
#127=DERIVED_UNIT((#124,#125));
#128=MEASURE_REPRESENTATION_ITEM('density measure',
POSITIVE_RATIO_MEASURE(1.),#127);
#129=PROPERTY_DEFINITION_REPRESENTATION(#134,#131);
#130=PROPERTY_DEFINITION_REPRESENTATION(#135,#132);
#131=REPRESENTATION('material name',(#133),#354);
#132=REPRESENTATION('density',(#128),#354);
#133=DESCRIPTIVE_REPRESENTATION_ITEM('\X2\4E00822C\X0\','\X2\4E00822C\X0\');
#134=PROPERTY_DEFINITION('material property','material name',#364);
#135=PROPERTY_DEFINITION('material property','density of part',#364);
#136=DATE_TIME_ROLE('creation_date');
#137=APPLIED_DATE_AND_TIME_ASSIGNMENT(#138,#136,(#364));
#138=DATE_AND_TIME(#139,#140);
#139=CALENDAR_DATE(2022,31,3);
#140=LOCAL_TIME(0,0,0.,#141);
#141=COORDINATED_UNIVERSAL_TIME_OFFSET(0,0,.BEHIND.);
#142=AXIS2_PLACEMENT_3D('placement',#188,#156,#157);
#143=AXIS2_PLACEMENT_3D('',#189,#158,#159);
#144=AXIS2_PLACEMENT_3D('',#262,#161,#162);
#145=AXIS2_PLACEMENT_3D('',#263,#163,#164);
#146=AXIS2_PLACEMENT_3D('',#265,#165,#166);
#147=AXIS2_PLACEMENT_3D('',#268,#168,#169);
#148=AXIS2_PLACEMENT_3D('',#269,#170,#171);
#149=AXIS2_PLACEMENT_3D('',#271,#172,#173);
#150=AXIS2_PLACEMENT_3D('',#343,#175,#176);
#151=AXIS2_PLACEMENT_3D('',#344,#177,#178);
#152=AXIS2_PLACEMENT_3D('',#346,#179,#180);
#153=AXIS2_PLACEMENT_3D('',#347,#181,#182);
#154=AXIS2_PLACEMENT_3D('',#349,#183,#184);
#155=AXIS2_PLACEMENT_3D('',#351,#186,#187);
#156=DIRECTION('axis',(0.,0.,1.));
#157=DIRECTION('refdir',(1.,0.,0.));
#158=DIRECTION('center_axis',(0.,0.,1.));
#159=DIRECTION('ref_axis',(1.,0.,0.));
#160=DIRECTION('',(0.,0.,1.));
#161=DIRECTION('center_axis',(0.,0.,-1.));
#162=DIRECTION('ref_axis',(1.,0.,0.));
#163=DIRECTION('center_axis',(1.,0.,0.));
#164=DIRECTION('ref_axis',(0.,1.,0.));
#165=DIRECTION('center_axis',(1.,0.,0.));
#166=DIRECTION('ref_axis',(0.,1.,0.));
#167=DIRECTION('',(1.,0.,0.));
#168=DIRECTION('center_axis',(-1.,0.,0.));
#169=DIRECTION('ref_axis',(0.,1.,0.));
#170=DIRECTION('center_axis',(0.,0.,1.));
#171=DIRECTION('ref_axis',(1.,0.,0.));
#172=DIRECTION('center_axis',(0.,0.,1.));
#173=DIRECTION('ref_axis',(1.,0.,0.));
#174=DIRECTION('',(0.,0.,-1.));
#175=DIRECTION('center_axis',(0.,0.,1.));
#176=DIRECTION('ref_axis',(1.,0.,0.));
#177=DIRECTION('center_axis',(1.,0.,0.));
#178=DIRECTION('ref_axis',(0.,0.,-1.));
#179=DIRECTION('center_axis',(-1.,0.,0.));
#180=DIRECTION('ref_axis',(0.,1.,0.));
#181=DIRECTION('center_axis',(1.,0.,0.));
#182=DIRECTION('ref_axis',(0.,1.,0.));
#183=DIRECTION('center_axis',(1.,0.,0.));
#184=DIRECTION('ref_axis',(0.,1.,0.));
#185=DIRECTION('',(-1.,0.,0.));
#186=DIRECTION('center_axis',(1.,0.,0.));
#187=DIRECTION('ref_axis',(0.,0.,-1.));
#188=CARTESIAN_POINT('',(0.,0.,0.));
#189=CARTESIAN_POINT('Origin',(0.,0.,0.));
#190=CARTESIAN_POINT('',(-2.77555756156289E-16,-17.85,31.4356485538314));
#191=CARTESIAN_POINT('',(-17.85,1.72257563861439E-17,36.15));
#192=CARTESIAN_POINT('Ctrl Pts',(-2.77555756156289E-16,-17.85,31.4356485538314));
#193=CARTESIAN_POINT('Ctrl Pts',(1.14438372819383,-17.85,31.4356485538314));
#194=CARTESIAN_POINT('Ctrl Pts',(2.31963592378125,-17.7382164279049,31.4999661547379));
#195=CARTESIAN_POINT('Ctrl Pts',(4.64272737691356,-17.2762876706702,31.7556620749371));
#196=CARTESIAN_POINT('Ctrl Pts',(5.79064992016016,-16.9263297245614,31.9466217582121));
#197=CARTESIAN_POINT('Ctrl Pts',(7.98152965772156,-16.0102315664318,32.4154239700537));
#198=CARTESIAN_POINT('Ctrl Pts',(9.02660334084373,-15.443362361194,32.693038249757));
#199=CARTESIAN_POINT('Ctrl Pts',(10.955494868301,-14.1405141792476,33.2772902990679));
#200=CARTESIAN_POINT('Ctrl Pts',(11.8393578566862,-13.4043542316735,33.5833753267259));
#201=CARTESIAN_POINT('Ctrl Pts',(13.4023395775118,-11.841372510848,34.1657448584416));
#202=CARTESIAN_POINT('Ctrl Pts',(14.138213832394,-10.9585057752073,34.463621583268));
#203=CARTESIAN_POINT('Ctrl Pts',(15.4418750130781,-9.02919904285473,35.0186182777643));
#204=CARTESIAN_POINT('Ctrl Pts',(16.0097634534394,-7.98270437668399,35.2753096611149));
#205=CARTESIAN_POINT('Ctrl Pts',(16.9270565062942,-5.7888565711571,35.7009829235214));
#206=CARTESIAN_POINT('Ctrl Pts',(17.2771936326485,-4.63942002225137,35.8700539648415));
#207=CARTESIAN_POINT('Ctrl Pts',(17.7387434967002,-2.31573252485371,36.0946307982178));
#208=CARTESIAN_POINT('Ctrl Pts',(17.85,-1.1414373476431,36.15));
#209=CARTESIAN_POINT('Ctrl Pts',(17.85,1.1414373476431,36.15));
#210=CARTESIAN_POINT('Ctrl Pts',(17.7387434967002,2.31573252485371,36.0946307982178));
#211=CARTESIAN_POINT('Ctrl Pts',(17.2771936326485,4.63942002225137,35.8700539648415));
#212=CARTESIAN_POINT('Ctrl Pts',(16.9270565062942,5.7888565711571,35.7009829235215));
#213=CARTESIAN_POINT('Ctrl Pts',(16.0097634534394,7.98270437668399,35.2753096611149));
#214=CARTESIAN_POINT('Ctrl Pts',(15.4418750130781,9.02919904285473,35.0186182777643));
#215=CARTESIAN_POINT('Ctrl Pts',(14.138213832394,10.9585057752072,34.463621583268));
#216=CARTESIAN_POINT('Ctrl Pts',(13.4023395775118,11.841372510848,34.1657448584416));
#217=CARTESIAN_POINT('Ctrl Pts',(11.8393578566862,13.4043542316735,33.5833753267259));
#218=CARTESIAN_POINT('Ctrl Pts',(10.955494868301,14.1405141792476,33.2772902990679));
#219=CARTESIAN_POINT('Ctrl Pts',(9.02660334084373,15.443362361194,32.693038249757));
#220=CARTESIAN_POINT('Ctrl Pts',(7.98152965772156,16.0102315664318,32.4154239700537));
#221=CARTESIAN_POINT('Ctrl Pts',(5.79064992016016,16.9263297245614,31.9466217582121));
#222=CARTESIAN_POINT('Ctrl Pts',(4.64272737691357,17.2762876706702,31.7556620749371));
#223=CARTESIAN_POINT('Ctrl Pts',(2.31963592378126,17.7382164279049,31.4999661547379));
#224=CARTESIAN_POINT('Ctrl Pts',(1.14438372819383,17.85,31.4356485538314));
#225=CARTESIAN_POINT('Ctrl Pts',(-1.14438372819383,17.85,31.4356485538314));
#226=CARTESIAN_POINT('Ctrl Pts',(-2.31963592378126,17.7382164279049,31.4999661547379));
#227=CARTESIAN_POINT('Ctrl Pts',(-4.64272737691357,17.2762876706702,31.7556620749371));
#228=CARTESIAN_POINT('Ctrl Pts',(-5.79064992016016,16.9263297245614,31.9466217582121));
#229=CARTESIAN_POINT('Ctrl Pts',(-7.98152965772156,16.0102315664318,32.4154239700536));
#230=CARTESIAN_POINT('Ctrl Pts',(-9.02660334084373,15.443362361194,32.693038249757));
#231=CARTESIAN_POINT('Ctrl Pts',(-10.955494868301,14.1405141792476,33.2772902990679));
#232=CARTESIAN_POINT('Ctrl Pts',(-11.8393578566862,13.4043542316735,33.5833753267259));
#233=CARTESIAN_POINT('Ctrl Pts',(-13.4023395775118,11.841372510848,34.1657448584416));
#234=CARTESIAN_POINT('Ctrl Pts',(-14.138213832394,10.9585057752073,34.463621583268));
#235=CARTESIAN_POINT('Ctrl Pts',(-15.4418750130781,9.02919904285473,35.0186182777643));
#236=CARTESIAN_POINT('Ctrl Pts',(-16.0097634534394,7.98270437668399,35.2753096611149));
#237=CARTESIAN_POINT('Ctrl Pts',(-16.9270565062942,5.78885657115711,35.7009829235214));
#238=CARTESIAN_POINT('Ctrl Pts',(-17.2771936326485,4.63942002225137,35.8700539648415));
#239=CARTESIAN_POINT('Ctrl Pts',(-17.7387434967002,2.31573252485371,36.0946307982178));
#240=CARTESIAN_POINT('Ctrl Pts',(-17.85,1.1414373476431,36.15));
#241=CARTESIAN_POINT('Ctrl Pts',(-17.85,1.11022302462516E-15,36.15));
#242=CARTESIAN_POINT('Ctrl Pts',(-17.85,2.22044604925031E-15,36.15));
#243=CARTESIAN_POINT('Ctrl Pts',(-17.85,-1.1414373476431,36.15));
#244=CARTESIAN_POINT('Ctrl Pts',(-17.7387434967002,-2.31573252485371,36.0946307982178));
#245=CARTESIAN_POINT('Ctrl Pts',(-17.2771936326485,-4.63942002225137,35.8700539648415));
#246=CARTESIAN_POINT('Ctrl Pts',(-16.9270565062942,-5.7888565711571,35.7009829235214));
#247=CARTESIAN_POINT('Ctrl Pts',(-16.0097634534394,-7.98270437668399,35.2753096611149));
#248=CARTESIAN_POINT('Ctrl Pts',(-15.4418750130781,-9.02919904285473,35.0186182777643));
#249=CARTESIAN_POINT('Ctrl Pts',(-14.138213832394,-10.9585057752073,34.463621583268));
#250=CARTESIAN_POINT('Ctrl Pts',(-13.4023395775118,-11.841372510848,34.1657448584416));
#251=CARTESIAN_POINT('Ctrl Pts',(-11.8393578566862,-13.4043542316735,33.5833753267259));
#252=CARTESIAN_POINT('Ctrl Pts',(-10.955494868301,-14.1405141792476,33.2772902990679));
#253=CARTESIAN_POINT('Ctrl Pts',(-9.02660334084373,-15.443362361194,32.693038249757));
#254=CARTESIAN_POINT('Ctrl Pts',(-7.98152965772157,-16.0102315664318,32.4154239700537));
#255=CARTESIAN_POINT('Ctrl Pts',(-5.79064992016017,-16.9263297245614,31.9466217582121));
#256=CARTESIAN_POINT('Ctrl Pts',(-4.64272737691357,-17.2762876706702,31.7556620749371));
#257=CARTESIAN_POINT('Ctrl Pts',(-2.31963592378126,-17.7382164279049,31.4999661547379));
#258=CARTESIAN_POINT('Ctrl Pts',(-1.14438372819383,-17.85,31.4356485538314));
#259=CARTESIAN_POINT('Ctrl Pts',(-2.77555756156289E-16,-17.85,31.4356485538314));
#260=CARTESIAN_POINT('',(-17.85,2.18599453647803E-15,42.9));
#261=CARTESIAN_POINT('',(-17.85,-2.18599453647803E-15,0.));
#262=CARTESIAN_POINT('Origin',(0.,0.,42.9));
#263=CARTESIAN_POINT('Origin',(0.,0.,0.));
#264=CARTESIAN_POINT('',(-90.,-36.15,-4.42709817891768E-15));
#265=CARTESIAN_POINT('Origin',(-90.,0.,0.));
#266=CARTESIAN_POINT('',(90.,-36.15,4.42709817891768E-15));
#267=CARTESIAN_POINT('',(0.,-36.15,-4.42709817891768E-15));
#268=CARTESIAN_POINT('Origin',(90.,0.,0.));
#269=CARTESIAN_POINT('Origin',(0.,0.,0.));
#270=CARTESIAN_POINT('',(-19.05,-2.33295215237571E-15,42.9));
#271=CARTESIAN_POINT('Origin',(0.,0.,42.9));
#272=CARTESIAN_POINT('',(-19.05,-2.13792122273487E-15,38.15));
#273=CARTESIAN_POINT('',(-19.05,-2.33295215237571E-15,0.));
#274=CARTESIAN_POINT('',(-5.55111512312578E-16,-19.05,33.0532903052026));
#275=CARTESIAN_POINT('Ctrl Pts',(-5.55111512312578E-16,-19.05,33.0532903052026));
#276=CARTESIAN_POINT('Ctrl Pts',(-1.22202183443908,-19.05,33.0532903052026));
#277=CARTESIAN_POINT('Ctrl Pts',(-2.47673102187965,-18.9305669790024,33.1230456539866));
#278=CARTESIAN_POINT('Ctrl Pts',(-4.95643787357417,-18.4373069258862,33.4001232409807));
#279=CARTESIAN_POINT('Ctrl Pts',(-6.18152748166164,-18.0636825321498,33.6069831315989));
#280=CARTESIAN_POINT('Ctrl Pts',(-8.51941280597652,-17.0858886552803,34.114487949167));
#281=CARTESIAN_POINT('Ctrl Pts',(-9.63447605695089,-16.4809406413436,34.4148817484285));
#282=CARTESIAN_POINT('Ctrl Pts',(-11.6924954113825,-15.0907284306091,35.0467602708262));
#283=CARTESIAN_POINT('Ctrl Pts',(-12.6355010566152,-14.3052673065922,35.3776502161802));
#284=CARTESIAN_POINT('Ctrl Pts',(-14.3030049730376,-12.6377633901698,36.0069636913031));
#285=CARTESIAN_POINT('Ctrl Pts',(-15.0881430161943,-11.695878722368,36.3287501965646));
#286=CARTESIAN_POINT('Ctrl Pts',(-16.4792646997084,-9.63739974339921,36.9282032611246));
#287=CARTESIAN_POINT('Ctrl Pts',(-17.0853565096075,-8.52074475856532,37.2054103531147));
#288=CARTESIAN_POINT('Ctrl Pts',(-18.064494195273,-6.17952719213769,37.6650912117564));
#289=CARTESIAN_POINT('Ctrl Pts',(-18.438322321392,-4.95273346946518,37.8476645638712));
#290=CARTESIAN_POINT('Ctrl Pts',(-18.9311592184221,-2.47234898431887,38.0901925994337));
#291=CARTESIAN_POINT('Ctrl Pts',(-19.05,-1.2187104475901,38.15));
#292=CARTESIAN_POINT('Ctrl Pts',(-19.05,-1.38777878078145E-15,38.15));
#293=CARTESIAN_POINT('Ctrl Pts',(-19.05,-1.94289029309402E-15,38.15));
#294=CARTESIAN_POINT('Ctrl Pts',(-19.05,1.2187104475901,38.15));
#295=CARTESIAN_POINT('Ctrl Pts',(-18.9311592184221,2.47234898431887,38.0901925994337));
#296=CARTESIAN_POINT('Ctrl Pts',(-18.438322321392,4.95273346946518,37.8476645638712));
#297=CARTESIAN_POINT('Ctrl Pts',(-18.064494195273,6.17952719213768,37.6650912117564));
#298=CARTESIAN_POINT('Ctrl Pts',(-17.0853565096075,8.52074475856532,37.2054103531147));
#299=CARTESIAN_POINT('Ctrl Pts',(-16.4792646997084,9.6373997433992,36.9282032611246));
#300=CARTESIAN_POINT('Ctrl Pts',(-15.0881430161943,11.695878722368,36.3287501965646));
#301=CARTESIAN_POINT('Ctrl Pts',(-14.3030049730376,12.6377633901698,36.0069636913031));
#302=CARTESIAN_POINT('Ctrl Pts',(-12.6355010566152,14.3052673065922,35.3776502161802));
#303=CARTESIAN_POINT('Ctrl Pts',(-11.6924954113825,15.0907284306091,35.0467602708262));
#304=CARTESIAN_POINT('Ctrl Pts',(-9.63447605695089,16.4809406413436,34.4148817484286));
#305=CARTESIAN_POINT('Ctrl Pts',(-8.51941280597652,17.0858886552804,34.114487949167));
#306=CARTESIAN_POINT('Ctrl Pts',(-6.18152748166163,18.0636825321498,33.6069831315989));
#307=CARTESIAN_POINT('Ctrl Pts',(-4.95643787357416,18.4373069258862,33.4001232409807));
#308=CARTESIAN_POINT('Ctrl Pts',(-2.47673102187965,18.9305669790024,33.1230456539866));
#309=CARTESIAN_POINT('Ctrl Pts',(-1.22202183443908,19.05,33.0532903052026));
#310=CARTESIAN_POINT('Ctrl Pts',(1.22202183443908,19.05,33.0532903052026));
#311=CARTESIAN_POINT('Ctrl Pts',(2.47673102187965,18.9305669790024,33.1230456539866));
#312=CARTESIAN_POINT('Ctrl Pts',(4.95643787357416,18.4373069258862,33.4001232409807));
#313=CARTESIAN_POINT('Ctrl Pts',(6.18152748166163,18.0636825321498,33.6069831315989));
#314=CARTESIAN_POINT('Ctrl Pts',(8.51941280597651,17.0858886552804,34.114487949167));
#315=CARTESIAN_POINT('Ctrl Pts',(9.63447605695088,16.4809406413436,34.4148817484286));
#316=CARTESIAN_POINT('Ctrl Pts',(11.6924954113825,15.0907284306091,35.0467602708262));
#317=CARTESIAN_POINT('Ctrl Pts',(12.6355010566152,14.3052673065923,35.3776502161802));
#318=CARTESIAN_POINT('Ctrl Pts',(14.3030049730376,12.6377633901698,36.0069636913031));
#319=CARTESIAN_POINT('Ctrl Pts',(15.0881430161943,11.695878722368,36.3287501965646));
#320=CARTESIAN_POINT('Ctrl Pts',(16.4792646997084,9.63739974339921,36.9282032611246));
#321=CARTESIAN_POINT('Ctrl Pts',(17.0853565096075,8.52074475856533,37.2054103531147));
#322=CARTESIAN_POINT('Ctrl Pts',(18.064494195273,6.17952719213769,37.6650912117564));
#323=CARTESIAN_POINT('Ctrl Pts',(18.438322321392,4.95273346946519,37.8476645638712));
#324=CARTESIAN_POINT('Ctrl Pts',(18.9311592184221,2.47234898431888,38.0901925994337));
#325=CARTESIAN_POINT('Ctrl Pts',(19.05,1.2187104475901,38.15));
#326=CARTESIAN_POINT('Ctrl Pts',(19.05,-1.2187104475901,38.15));
#327=CARTESIAN_POINT('Ctrl Pts',(18.9311592184221,-2.47234898431887,38.0901925994337));
#328=CARTESIAN_POINT('Ctrl Pts',(18.438322321392,-4.95273346946518,37.8476645638712));
#329=CARTESIAN_POINT('Ctrl Pts',(18.064494195273,-6.17952719213769,37.6650912117564));
#330=CARTESIAN_POINT('Ctrl Pts',(17.0853565096075,-8.52074475856533,37.2054103531147));
#331=CARTESIAN_POINT('Ctrl Pts',(16.4792646997084,-9.63739974339921,36.9282032611246));
#332=CARTESIAN_POINT('Ctrl Pts',(15.0881430161943,-11.695878722368,36.3287501965646));
#333=CARTESIAN_POINT('Ctrl Pts',(14.3030049730376,-12.6377633901698,36.0069636913031));
#334=CARTESIAN_POINT('Ctrl Pts',(12.6355010566152,-14.3052673065922,35.3776502161802));
#335=CARTESIAN_POINT('Ctrl Pts',(11.6924954113825,-15.0907284306091,35.0467602708263));
#336=CARTESIAN_POINT('Ctrl Pts',(9.63447605695089,-16.4809406413436,34.4148817484286));
#337=CARTESIAN_POINT('Ctrl Pts',(8.51941280597652,-17.0858886552804,34.114487949167));
#338=CARTESIAN_POINT('Ctrl Pts',(6.18152748166163,-18.0636825321498,33.6069831315989));
#339=CARTESIAN_POINT('Ctrl Pts',(4.95643787357416,-18.4373069258862,33.4001232409807));
#340=CARTESIAN_POINT('Ctrl Pts',(2.47673102187965,-18.9305669790024,33.1230456539866));
#341=CARTESIAN_POINT('Ctrl Pts',(1.22202183443908,-19.05,33.0532903052026));
#342=CARTESIAN_POINT('Ctrl Pts',(0.,-19.05,33.0532903052026));
#343=CARTESIAN_POINT('Origin',(0.,0.,42.9));
#344=CARTESIAN_POINT('Origin',(-90.,0.,0.));
#345=CARTESIAN_POINT('',(-90.,-38.15,-4.67202753874715E-15));
#346=CARTESIAN_POINT('Origin',(-90.,0.,0.));
#347=CARTESIAN_POINT('Origin',(0.,0.,0.));
#348=CARTESIAN_POINT('',(90.,-38.15,-4.67202753874715E-15));
#349=CARTESIAN_POINT('Origin',(90.,0.,0.));
#350=CARTESIAN_POINT('',(0.,-38.15,-4.67202753874715E-15));
#351=CARTESIAN_POINT('Origin',(90.,0.,0.));
#352=UNCERTAINTY_MEASURE_WITH_UNIT(LENGTH_MEASURE(0.01),#356,
'DISTANCE_ACCURACY_VALUE',
'Maximum model space distance between geometric entities at asserted c
onnectivities');
#353=UNCERTAINTY_MEASURE_WITH_UNIT(LENGTH_MEASURE(0.01),#356,
'DISTANCE_ACCURACY_VALUE',
'Maximum model space distance between geometric entities at asserted c
onnectivities');
#354=(
GEOMETRIC_REPRESENTATION_CONTEXT(3)
GLOBAL_UNCERTAINTY_ASSIGNED_CONTEXT((#352))
GLOBAL_UNIT_ASSIGNED_CONTEXT((#356,#358,#359))
REPRESENTATION_CONTEXT('','3D')
);
#355=(
GEOMETRIC_REPRESENTATION_CONTEXT(3)
GLOBAL_UNCERTAINTY_ASSIGNED_CONTEXT((#353))
GLOBAL_UNIT_ASSIGNED_CONTEXT((#356,#358,#359))
REPRESENTATION_CONTEXT('','3D')
);
#356=(
LENGTH_UNIT()
NAMED_UNIT(*)
SI_UNIT(.MILLI.,.METRE.)
);
#357=(
LENGTH_UNIT()
NAMED_UNIT(*)
SI_UNIT(.CENTI.,.METRE.)
);
#358=(
NAMED_UNIT(*)
PLANE_ANGLE_UNIT()
SI_UNIT($,.RADIAN.)
);
#359=(
NAMED_UNIT(*)
SI_UNIT($,.STERADIAN.)
SOLID_ANGLE_UNIT()
);
#360=SHAPE_DEFINITION_REPRESENTATION(#361,#362);
#361=PRODUCT_DEFINITION_SHAPE('',$,#364);
#362=SHAPE_REPRESENTATION('',(#142),#354);
#363=PRODUCT_DEFINITION_CONTEXT('part definition',#368,'design');
#364=PRODUCT_DEFINITION('T-8 30\X\D715','T-8 30\X\D715',#365,#363);
#365=PRODUCT_DEFINITION_FORMATION('',$,#370);
#366=PRODUCT_RELATED_PRODUCT_CATEGORY('T-8 30\X\D715','T-8 30\X\D715',(#370));
#367=APPLICATION_PROTOCOL_DEFINITION('international standard',
'automotive_design',2009,#368);
#368=APPLICATION_CONTEXT(
'Core Data for Automotive Mechanical Design Process');
#369=PRODUCT_CONTEXT('part definition',#368,'mechanical');
#370=PRODUCT('T-8 30\X\D715','T-8 30\X\D715',$,(#369));
#371=PRESENTATION_STYLE_ASSIGNMENT((#372));
#372=SURFACE_STYLE_USAGE(.BOTH.,#375);
#373=SURFACE_STYLE_RENDERING_WITH_PROPERTIES($,#379,(#374));
#374=SURFACE_STYLE_TRANSPARENT(0.);
#375=SURFACE_SIDE_STYLE('',(#376,#373));
#376=SURFACE_STYLE_FILL_AREA(#377);
#377=FILL_AREA_STYLE('',(#378));
#378=FILL_AREA_STYLE_COLOUR('',#379);
#379=COLOUR_RGB('',0.749019607843137,0.749019607843137,0.749019607843137);
ENDSEC;
END-ISO-10303-21;
