ISO-10303-21;
HEADER;
/* Generated by software containing ST-Developer
 * from STEP Tools, Inc. (www.steptools.com) 
 */

FILE_DESCRIPTION(
/* description */ (''),
/* implementation_level */ '2;1');

FILE_NAME(
/* name */ 
'\\\\Tske00\\w\\Work\\TOSTE\\\X2\7D99624B\X0\\\02_\X2\6EB663A5\X0\\\\X2\6EB663A530EC30B830E530FC30B530FC\X0\\\
\X2\30A830AD30BB30F330C830EC30B830E530FC30B530FC\X0\\\T14 30\X\D720.st
p',
/* time_stamp */ '2022-04-12T12:01:37+09:00',
/* author */ ('3dcad-eng'),
/* organization */ (''),
/* preprocessor_version */ 'ST-DEVELOPER v18.1',
/* originating_system */ 'Autodesk Inventor 2022',
/* authorisation */ '');

FILE_SCHEMA (('AUTOMOTIVE_DESIGN { 1 0 10303 214 3 1 1 }'));
ENDSEC;

DATA;
#10=MECHANICAL_DESIGN_GEOMETRIC_PRESENTATION_REPRESENTATION('',(#13),#357);
#11=SHAPE_REPRESENTATION_RELATIONSHIP('SRR','None',#364,#12);
#12=ADVANCED_BREP_SHAPE_REPRESENTATION('',(#14),#356);
#13=STYLED_ITEM('',(#373),#14);
#14=MANIFOLD_SOLID_BREP('\X2\30BD30EA30C330C9\X0\1',#169);
#15=FACE_BOUND('',#43,.T.);
#16=FACE_BOUND('',#46,.T.);
#17=PLANE('',#205);
#18=PLANE('',#208);
#19=LINE('',#339,#23);
#20=LINE('',#344,#24);
#21=LINE('',#351,#25);
#22=LINE('',#353,#26);
#23=VECTOR('',#247,25.4);
#24=VECTOR('',#254,23.9);
#25=VECTOR('',#263,38.15);
#26=VECTOR('',#266,36.15);
#27=CYLINDRICAL_SURFACE('',#203,25.4);
#28=CYLINDRICAL_SURFACE('',#207,23.9);
#29=CYLINDRICAL_SURFACE('',#211,38.15);
#30=CYLINDRICAL_SURFACE('',#212,36.15);
#31=FACE_OUTER_BOUND('',#39,.T.);
#32=FACE_OUTER_BOUND('',#40,.T.);
#33=FACE_OUTER_BOUND('',#41,.T.);
#34=FACE_OUTER_BOUND('',#42,.T.);
#35=FACE_OUTER_BOUND('',#44,.T.);
#36=FACE_OUTER_BOUND('',#45,.T.);
#37=FACE_OUTER_BOUND('',#47,.T.);
#38=FACE_OUTER_BOUND('',#48,.T.);
#39=EDGE_LOOP('',(#111,#112,#113,#114,#115,#116,#117,#118,#119,#120));
#40=EDGE_LOOP('',(#121,#122,#123,#124,#125,#126,#127,#128));
#41=EDGE_LOOP('',(#129,#130,#131,#132,#133,#134));
#42=EDGE_LOOP('',(#135));
#43=EDGE_LOOP('',(#136));
#44=EDGE_LOOP('',(#137,#138,#139,#140,#141,#142,#143));
#45=EDGE_LOOP('',(#144));
#46=EDGE_LOOP('',(#145));
#47=EDGE_LOOP('',(#146,#147,#148,#149,#150,#151));
#48=EDGE_LOOP('',(#152,#153,#154,#155,#156,#157,#158));
#49=B_SPLINE_CURVE_WITH_KNOTS('',1,(#294,#295),.UNSPECIFIED.,.F.,.F.,(2,
2),(0.0093959472948954,1.65550186029529),.UNSPECIFIED.);
#50=B_SPLINE_CURVE_WITH_KNOTS('',1,(#328,#329),.UNSPECIFIED.,.F.,.F.,(2,
2),(-1.57193022168363,-0.0097303351371047),.UNSPECIFIED.);
#51=CIRCLE('',#189,36.15);
#52=CIRCLE('',#190,36.15);
#53=CIRCLE('',#191,36.15);
#54=CIRCLE('',#192,23.9);
#55=CIRCLE('',#193,23.9);
#56=CIRCLE('',#194,23.9);
#57=CIRCLE('',#195,23.9);
#58=CIRCLE('',#196,36.15);
#59=CIRCLE('',#197,25.4);
#60=CIRCLE('',#198,25.4);
#61=CIRCLE('',#199,38.15);
#62=CIRCLE('',#200,38.15);
#63=CIRCLE('',#201,38.15);
#64=CIRCLE('',#202,25.4);
#65=CIRCLE('',#204,25.4);
#66=CIRCLE('',#206,23.9);
#67=CIRCLE('',#209,38.15);
#68=CIRCLE('',#210,36.15);
#69=VERTEX_POINT('',#286);
#70=VERTEX_POINT('',#287);
#71=VERTEX_POINT('',#289);
#72=VERTEX_POINT('',#291);
#73=VERTEX_POINT('',#293);
#74=VERTEX_POINT('',#296);
#75=VERTEX_POINT('',#298);
#76=VERTEX_POINT('',#300);
#77=VERTEX_POINT('',#322);
#78=VERTEX_POINT('',#323);
#79=VERTEX_POINT('',#325);
#80=VERTEX_POINT('',#327);
#81=VERTEX_POINT('',#330);
#82=VERTEX_POINT('',#332);
#83=VERTEX_POINT('',#337);
#84=VERTEX_POINT('',#341);
#85=VERTEX_POINT('',#346);
#86=VERTEX_POINT('',#348);
#87=EDGE_CURVE('',#69,#70,#51,.T.);
#88=EDGE_CURVE('',#71,#69,#52,.T.);
#89=EDGE_CURVE('',#72,#71,#53,.T.);
#90=EDGE_CURVE('',#72,#73,#49,.T.);
#91=EDGE_CURVE('',#73,#74,#54,.T.);
#92=EDGE_CURVE('',#74,#75,#55,.T.);
#93=EDGE_CURVE('',#75,#76,#56,.T.);
#94=EDGE_CURVE('',#76,#73,#57,.T.);
#95=EDGE_CURVE('',#70,#72,#58,.T.);
#96=EDGE_CURVE('',#77,#78,#59,.T.);
#97=EDGE_CURVE('',#79,#77,#60,.T.);
#98=EDGE_CURVE('',#79,#80,#50,.T.);
#99=EDGE_CURVE('',#80,#81,#61,.T.);
#100=EDGE_CURVE('',#81,#82,#62,.T.);
#101=EDGE_CURVE('',#82,#80,#63,.T.);
#102=EDGE_CURVE('',#78,#79,#64,.T.);
#103=EDGE_CURVE('',#83,#83,#65,.T.);
#104=EDGE_CURVE('',#83,#78,#19,.T.);
#105=EDGE_CURVE('',#84,#84,#66,.T.);
#106=EDGE_CURVE('',#84,#74,#20,.T.);
#107=EDGE_CURVE('',#85,#85,#67,.T.);
#108=EDGE_CURVE('',#86,#86,#68,.T.);
#109=EDGE_CURVE('',#82,#85,#21,.T.);
#110=EDGE_CURVE('',#71,#86,#22,.T.);
#111=ORIENTED_EDGE('',*,*,#87,.F.);
#112=ORIENTED_EDGE('',*,*,#88,.F.);
#113=ORIENTED_EDGE('',*,*,#89,.F.);
#114=ORIENTED_EDGE('',*,*,#90,.T.);
#115=ORIENTED_EDGE('',*,*,#91,.T.);
#116=ORIENTED_EDGE('',*,*,#92,.T.);
#117=ORIENTED_EDGE('',*,*,#93,.T.);
#118=ORIENTED_EDGE('',*,*,#94,.T.);
#119=ORIENTED_EDGE('',*,*,#90,.F.);
#120=ORIENTED_EDGE('',*,*,#95,.F.);
#121=ORIENTED_EDGE('',*,*,#96,.F.);
#122=ORIENTED_EDGE('',*,*,#97,.F.);
#123=ORIENTED_EDGE('',*,*,#98,.T.);
#124=ORIENTED_EDGE('',*,*,#99,.T.);
#125=ORIENTED_EDGE('',*,*,#100,.T.);
#126=ORIENTED_EDGE('',*,*,#101,.T.);
#127=ORIENTED_EDGE('',*,*,#98,.F.);
#128=ORIENTED_EDGE('',*,*,#102,.F.);
#129=ORIENTED_EDGE('',*,*,#103,.F.);
#130=ORIENTED_EDGE('',*,*,#104,.T.);
#131=ORIENTED_EDGE('',*,*,#102,.T.);
#132=ORIENTED_EDGE('',*,*,#97,.T.);
#133=ORIENTED_EDGE('',*,*,#96,.T.);
#134=ORIENTED_EDGE('',*,*,#104,.F.);
#135=ORIENTED_EDGE('',*,*,#103,.T.);
#136=ORIENTED_EDGE('',*,*,#105,.F.);
#137=ORIENTED_EDGE('',*,*,#105,.T.);
#138=ORIENTED_EDGE('',*,*,#106,.T.);
#139=ORIENTED_EDGE('',*,*,#91,.F.);
#140=ORIENTED_EDGE('',*,*,#94,.F.);
#141=ORIENTED_EDGE('',*,*,#93,.F.);
#142=ORIENTED_EDGE('',*,*,#92,.F.);
#143=ORIENTED_EDGE('',*,*,#106,.F.);
#144=ORIENTED_EDGE('',*,*,#107,.F.);
#145=ORIENTED_EDGE('',*,*,#108,.T.);
#146=ORIENTED_EDGE('',*,*,#100,.F.);
#147=ORIENTED_EDGE('',*,*,#99,.F.);
#148=ORIENTED_EDGE('',*,*,#101,.F.);
#149=ORIENTED_EDGE('',*,*,#109,.T.);
#150=ORIENTED_EDGE('',*,*,#107,.T.);
#151=ORIENTED_EDGE('',*,*,#109,.F.);
#152=ORIENTED_EDGE('',*,*,#87,.T.);
#153=ORIENTED_EDGE('',*,*,#95,.T.);
#154=ORIENTED_EDGE('',*,*,#89,.T.);
#155=ORIENTED_EDGE('',*,*,#110,.T.);
#156=ORIENTED_EDGE('',*,*,#108,.F.);
#157=ORIENTED_EDGE('',*,*,#110,.F.);
#158=ORIENTED_EDGE('',*,*,#88,.T.);
#159=(
BOUNDED_SURFACE()
B_SPLINE_SURFACE(1,2,((#268,#269,#270,#271,#272,#273,#274,#275,#276),(#277,
#278,#279,#280,#281,#282,#283,#284,#285)),.UNSPECIFIED.,.F.,.T.,.F.)
B_SPLINE_SURFACE_WITH_KNOTS((2,2),(3,2,2,2,3),(-0.21384785053509,1.79247143009981),
(-3.14159265358979,-1.5707963267949,0.,1.5707963267949,3.14159265358979),
 .UNSPECIFIED.)
GEOMETRIC_REPRESENTATION_ITEM()
RATIONAL_B_SPLINE_SURFACE(((1.,0.707106781186548,1.,0.707106781186548,1.,
0.707106781186548,1.,0.707106781186548,1.),(1.,0.707106781186548,1.,0.707106781186548,
1.,0.707106781186548,1.,0.707106781186548,1.)))
REPRESENTATION_ITEM('')
SURFACE()
);
#160=(
BOUNDED_SURFACE()
B_SPLINE_SURFACE(1,2,((#304,#305,#306,#307,#308,#309,#310,#311,#312),(#313,
#314,#315,#316,#317,#318,#319,#320,#321)),.UNSPECIFIED.,.F.,.T.,.F.)
B_SPLINE_SURFACE_WITH_KNOTS((2,2),(3,2,2,2,3),(-0.213489211352782,1.70759143939996),
(-3.14159265358979,-1.5707963267949,0.,1.5707963267949,3.14159265358979),
 .UNSPECIFIED.)
GEOMETRIC_REPRESENTATION_ITEM()
RATIONAL_B_SPLINE_SURFACE(((1.,0.707106781186548,1.,0.707106781186548,1.,
0.707106781186548,1.,0.707106781186548,1.),(1.,0.707106781186548,1.,0.707106781186548,
1.,0.707106781186548,1.,0.707106781186548,1.)))
REPRESENTATION_ITEM('')
SURFACE()
);
#161=ADVANCED_FACE('',(#31),#159,.T.);
#162=ADVANCED_FACE('',(#32),#160,.F.);
#163=ADVANCED_FACE('',(#33),#27,.T.);
#164=ADVANCED_FACE('',(#34,#15),#17,.T.);
#165=ADVANCED_FACE('',(#35),#28,.F.);
#166=ADVANCED_FACE('',(#36,#16),#18,.T.);
#167=ADVANCED_FACE('',(#37),#29,.T.);
#168=ADVANCED_FACE('',(#38),#30,.F.);
#169=CLOSED_SHELL('',(#161,#162,#163,#164,#165,#166,#167,#168));
#170=DERIVED_UNIT_ELEMENT(#172,1.);
#171=DERIVED_UNIT_ELEMENT(#359,-3.);
#172=(
MASS_UNIT()
NAMED_UNIT(*)
SI_UNIT($,.GRAM.)
);
#173=DERIVED_UNIT((#170,#171));
#174=MEASURE_REPRESENTATION_ITEM('density measure',
POSITIVE_RATIO_MEASURE(1.),#173);
#175=PROPERTY_DEFINITION_REPRESENTATION(#180,#177);
#176=PROPERTY_DEFINITION_REPRESENTATION(#181,#178);
#177=REPRESENTATION('material name',(#179),#356);
#178=REPRESENTATION('density',(#174),#356);
#179=DESCRIPTIVE_REPRESENTATION_ITEM('\X2\4E00822C\X0\','\X2\4E00822C\X0\');
#180=PROPERTY_DEFINITION('material property','material name',#366);
#181=PROPERTY_DEFINITION('material property','density of part',#366);
#182=DATE_TIME_ROLE('creation_date');
#183=APPLIED_DATE_AND_TIME_ASSIGNMENT(#184,#182,(#366));
#184=DATE_AND_TIME(#185,#186);
#185=CALENDAR_DATE(2022,29,3);
#186=LOCAL_TIME(0,0,0.,#187);
#187=COORDINATED_UNIVERSAL_TIME_OFFSET(0,0,.BEHIND.);
#188=AXIS2_PLACEMENT_3D('placement',#267,#213,#214);
#189=AXIS2_PLACEMENT_3D('',#288,#215,#216);
#190=AXIS2_PLACEMENT_3D('',#290,#217,#218);
#191=AXIS2_PLACEMENT_3D('',#292,#219,#220);
#192=AXIS2_PLACEMENT_3D('',#297,#221,#222);
#193=AXIS2_PLACEMENT_3D('',#299,#223,#224);
#194=AXIS2_PLACEMENT_3D('',#301,#225,#226);
#195=AXIS2_PLACEMENT_3D('',#302,#227,#228);
#196=AXIS2_PLACEMENT_3D('',#303,#229,#230);
#197=AXIS2_PLACEMENT_3D('',#324,#231,#232);
#198=AXIS2_PLACEMENT_3D('',#326,#233,#234);
#199=AXIS2_PLACEMENT_3D('',#331,#235,#236);
#200=AXIS2_PLACEMENT_3D('',#333,#237,#238);
#201=AXIS2_PLACEMENT_3D('',#334,#239,#240);
#202=AXIS2_PLACEMENT_3D('',#335,#241,#242);
#203=AXIS2_PLACEMENT_3D('',#336,#243,#244);
#204=AXIS2_PLACEMENT_3D('',#338,#245,#246);
#205=AXIS2_PLACEMENT_3D('',#340,#248,#249);
#206=AXIS2_PLACEMENT_3D('',#342,#250,#251);
#207=AXIS2_PLACEMENT_3D('',#343,#252,#253);
#208=AXIS2_PLACEMENT_3D('',#345,#255,#256);
#209=AXIS2_PLACEMENT_3D('',#347,#257,#258);
#210=AXIS2_PLACEMENT_3D('',#349,#259,#260);
#211=AXIS2_PLACEMENT_3D('',#350,#261,#262);
#212=AXIS2_PLACEMENT_3D('',#352,#264,#265);
#213=DIRECTION('axis',(0.,0.,1.));
#214=DIRECTION('refdir',(1.,0.,0.));
#215=DIRECTION('center_axis',(1.,0.,0.));
#216=DIRECTION('ref_axis',(0.,0.,-1.));
#217=DIRECTION('center_axis',(1.,0.,0.));
#218=DIRECTION('ref_axis',(0.,0.,-1.));
#219=DIRECTION('center_axis',(1.,0.,0.));
#220=DIRECTION('ref_axis',(0.,0.,-1.));
#221=DIRECTION('center_axis',(1.,0.,0.));
#222=DIRECTION('ref_axis',(0.,0.,-1.));
#223=DIRECTION('center_axis',(1.,0.,0.));
#224=DIRECTION('ref_axis',(0.,0.,-1.));
#225=DIRECTION('center_axis',(1.,0.,0.));
#226=DIRECTION('ref_axis',(0.,0.,-1.));
#227=DIRECTION('center_axis',(1.,0.,0.));
#228=DIRECTION('ref_axis',(0.,0.,-1.));
#229=DIRECTION('center_axis',(1.,0.,0.));
#230=DIRECTION('ref_axis',(0.,0.,-1.));
#231=DIRECTION('center_axis',(1.,0.,0.));
#232=DIRECTION('ref_axis',(0.,0.,-1.));
#233=DIRECTION('center_axis',(1.,0.,0.));
#234=DIRECTION('ref_axis',(0.,0.,-1.));
#235=DIRECTION('center_axis',(1.,0.,0.));
#236=DIRECTION('ref_axis',(0.,0.,-1.));
#237=DIRECTION('center_axis',(1.,0.,0.));
#238=DIRECTION('ref_axis',(0.,0.,-1.));
#239=DIRECTION('center_axis',(1.,0.,0.));
#240=DIRECTION('ref_axis',(0.,0.,-1.));
#241=DIRECTION('center_axis',(1.,0.,0.));
#242=DIRECTION('ref_axis',(0.,0.,-1.));
#243=DIRECTION('center_axis',(1.,0.,0.));
#244=DIRECTION('ref_axis',(0.,0.,-1.));
#245=DIRECTION('center_axis',(1.,0.,0.));
#246=DIRECTION('ref_axis',(0.,0.,-1.));
#247=DIRECTION('',(-1.,0.,0.));
#248=DIRECTION('center_axis',(1.,0.,0.));
#249=DIRECTION('ref_axis',(0.,0.,-1.));
#250=DIRECTION('center_axis',(1.,0.,0.));
#251=DIRECTION('ref_axis',(0.,0.,-1.));
#252=DIRECTION('center_axis',(1.,0.,0.));
#253=DIRECTION('ref_axis',(0.,0.,-1.));
#254=DIRECTION('',(-1.,0.,0.));
#255=DIRECTION('center_axis',(-1.,0.,0.));
#256=DIRECTION('ref_axis',(0.,0.,1.));
#257=DIRECTION('center_axis',(1.,0.,0.));
#258=DIRECTION('ref_axis',(0.,0.,-1.));
#259=DIRECTION('center_axis',(1.,0.,0.));
#260=DIRECTION('ref_axis',(0.,0.,-1.));
#261=DIRECTION('center_axis',(1.,0.,0.));
#262=DIRECTION('ref_axis',(0.,0.,-1.));
#263=DIRECTION('',(-1.,0.,0.));
#264=DIRECTION('center_axis',(1.,0.,0.));
#265=DIRECTION('ref_axis',(0.,0.,-1.));
#266=DIRECTION('',(-1.,0.,0.));
#267=CARTESIAN_POINT('',(0.,0.,0.));
#268=CARTESIAN_POINT('Ctrl Pts',(-2.73030239173079,37.7748217618134,0.0678096701024933));
#269=CARTESIAN_POINT('Ctrl Pts',(4.9999999999999,37.7748217618138,36.1499999999996));
#270=CARTESIAN_POINT('Ctrl Pts',(4.99999999999999,4.05165615035526E-13,
36.15));
#271=CARTESIAN_POINT('Ctrl Pts',(5.00000000000007,-37.774821761813,36.1500000000004));
#272=CARTESIAN_POINT('Ctrl Pts',(-2.73030239173062,-37.7748217618134,0.0678096701033143));
#273=CARTESIAN_POINT('Ctrl Pts',(-10.4606047834613,-37.7748217618138,-36.0143806597938));
#274=CARTESIAN_POINT('Ctrl Pts',(-10.4606047834614,-4.14047399232527E-13,
-36.0143806597942));
#275=CARTESIAN_POINT('Ctrl Pts',(-10.4606047834615,37.774821761813,-36.0143806597946));
#276=CARTESIAN_POINT('Ctrl Pts',(-2.73030239173079,37.7748217618134,0.0678096701024933));
#277=CARTESIAN_POINT('Ctrl Pts',(66.7428694698185,22.8586027616229,-14.8162265176191));
#278=CARTESIAN_POINT('Ctrl Pts',(71.4206919811725,22.8586027616232,7.01811755211704));
#279=CARTESIAN_POINT('Ctrl Pts',(71.4206919811726,2.43404830418099E-13,
7.01811755211729));
#280=CARTESIAN_POINT('Ctrl Pts',(71.4206919811726,-22.8586027616227,7.01811755211753));
#281=CARTESIAN_POINT('Ctrl Pts',(66.7428694698187,-22.8586027616229,-14.8162265176186));
#282=CARTESIAN_POINT('Ctrl Pts',(62.0650469584647,-22.8586027616232,-36.6505705873547));
#283=CARTESIAN_POINT('Ctrl Pts',(62.0650469584646,-2.52286614615101E-13,
-36.650570587355));
#284=CARTESIAN_POINT('Ctrl Pts',(62.0650469584645,22.8586027616227,-36.6505705873552));
#285=CARTESIAN_POINT('Ctrl Pts',(66.7428694698185,22.8586027616229,-14.8162265176191));
#286=CARTESIAN_POINT('',(5.00000000000004,-10.0242784862328,-34.7323529411765));
#287=CARTESIAN_POINT('',(5.,10.0242784862328,-34.7323529411765));
#288=CARTESIAN_POINT('Origin',(4.99999999999998,0.,0.));
#289=CARTESIAN_POINT('',(4.99999999999998,-4.42709817891768E-15,36.15));
#290=CARTESIAN_POINT('Origin',(4.99999999999998,0.,0.));
#291=CARTESIAN_POINT('',(4.99999999999998,36.1150892302033,-1.58834186951407));
#292=CARTESIAN_POINT('Origin',(4.99999999999998,0.,0.));
#293=CARTESIAN_POINT('',(62.,23.8769192974235,-13.8001070727908));
#294=CARTESIAN_POINT('Ctrl Pts',(4.99999999999998,36.1150892302033,-1.58834186951408));
#295=CARTESIAN_POINT('Ctrl Pts',(62.,23.8769192974235,-13.8001070727908));
#296=CARTESIAN_POINT('',(62.,-2.92690584996218E-15,11.15));
#297=CARTESIAN_POINT('Origin',(62.,0.,-12.75));
#298=CARTESIAN_POINT('',(62.0000000000003,-6.62739296876801,-35.7127450980392));
#299=CARTESIAN_POINT('Origin',(62.,0.,-12.75));
#300=CARTESIAN_POINT('',(62.0000000000003,6.627392968768,-35.7127450980392));
#301=CARTESIAN_POINT('Origin',(62.,0.,-12.75));
#302=CARTESIAN_POINT('Origin',(62.,0.,-12.75));
#303=CARTESIAN_POINT('Origin',(4.99999999999998,0.,0.));
#304=CARTESIAN_POINT('Ctrl Pts',(-3.14461341310863,-39.9302826742969,1.93191322103838E-13));
#305=CARTESIAN_POINT('Ctrl Pts',(-11.2892268262173,-39.9302826742971,-38.1499999999998));
#306=CARTESIAN_POINT('Ctrl Pts',(-11.2892268262173,-1.92289426929501E-13,
-38.15));
#307=CARTESIAN_POINT('Ctrl Pts',(-11.2892268262173,39.9302826742967,-38.1500000000002));
#308=CARTESIAN_POINT('Ctrl Pts',(-3.14461341310871,39.9302826742969,-1.92074841169682E-13));
#309=CARTESIAN_POINT('Ctrl Pts',(4.99999999999993,39.9302826742971,38.1499999999998));
#310=CARTESIAN_POINT('Ctrl Pts',(4.99999999999998,1.92289426929501E-13,
38.15));
#311=CARTESIAN_POINT('Ctrl Pts',(5.00000000000001,-39.9302826742967,38.1500000000002));
#312=CARTESIAN_POINT('Ctrl Pts',(-3.14461341310863,-39.9302826742969,1.93191322103838E-13));
#313=CARTESIAN_POINT('Ctrl Pts',(66.949871957119,-24.2675467114525,-14.9644164018689));
#314=CARTESIAN_POINT('Ctrl Pts',(62.,-24.2675467114526,-38.1499999999999));
#315=CARTESIAN_POINT('Ctrl Pts',(62.,-1.20059625715666E-13,-38.15));
#316=CARTESIAN_POINT('Ctrl Pts',(62.,24.2675467114524,-38.1500000000001));
#317=CARTESIAN_POINT('Ctrl Pts',(66.9498719571189,24.2675467114525,-14.9644164018691));
#318=CARTESIAN_POINT('Ctrl Pts',(71.8997439142379,24.2675467114526,8.22116719626185));
#319=CARTESIAN_POINT('Ctrl Pts',(71.899743914238,1.20059625715666E-13,8.22116719626198));
#320=CARTESIAN_POINT('Ctrl Pts',(71.899743914238,-24.2675467114524,8.22116719626209));
#321=CARTESIAN_POINT('Ctrl Pts',(66.949871957119,-24.2675467114525,-14.9644164018689));
#322=CARTESIAN_POINT('',(62.,0.,-38.15));
#323=CARTESIAN_POINT('',(62.,-3.11060286983428E-15,12.65));
#324=CARTESIAN_POINT('Origin',(62.,0.,-12.75));
#325=CARTESIAN_POINT('',(62.,-25.3736043007871,-13.9076721414463));
#326=CARTESIAN_POINT('Origin',(62.,0.,-12.75));
#327=CARTESIAN_POINT('',(4.99999999999998,-38.1103544911428,-1.73878709433767));
#328=CARTESIAN_POINT('Ctrl Pts',(62.,-25.3736043007871,-13.9076721414463));
#329=CARTESIAN_POINT('Ctrl Pts',(4.99999999999998,-38.1103544911428,-1.73878709433766));
#330=CARTESIAN_POINT('',(4.99999999999998,0.,-38.15));
#331=CARTESIAN_POINT('Origin',(4.99999999999998,0.,0.));
#332=CARTESIAN_POINT('',(4.99999999999998,-4.67202753874715E-15,38.15));
#333=CARTESIAN_POINT('Origin',(4.99999999999998,0.,0.));
#334=CARTESIAN_POINT('Origin',(4.99999999999998,0.,0.));
#335=CARTESIAN_POINT('Origin',(62.,0.,-12.75));
#336=CARTESIAN_POINT('Origin',(64.5,0.,-12.75));
#337=CARTESIAN_POINT('',(67.,-3.11060286983428E-15,12.65));
#338=CARTESIAN_POINT('Origin',(67.,0.,-12.75));
#339=CARTESIAN_POINT('',(64.5,-3.11060286983428E-15,12.65));
#340=CARTESIAN_POINT('Origin',(67.,0.,-36.65));
#341=CARTESIAN_POINT('',(67.,-2.92690584996218E-15,11.15));
#342=CARTESIAN_POINT('Origin',(67.,0.,-12.75));
#343=CARTESIAN_POINT('Origin',(64.5,0.,-12.75));
#344=CARTESIAN_POINT('',(64.5,-2.92690584996218E-15,11.15));
#345=CARTESIAN_POINT('Origin',(-1.75113065646851E-14,0.,-38.15));
#346=CARTESIAN_POINT('',(-1.72084568816899E-14,-4.67202753874715E-15,38.15));
#347=CARTESIAN_POINT('Origin',(-1.74860126378462E-14,0.,0.));
#348=CARTESIAN_POINT('',(-1.63757896132211E-14,-4.42709817891768E-15,36.15));
#349=CARTESIAN_POINT('Origin',(-1.69309011255336E-14,0.,0.));
#350=CARTESIAN_POINT('Origin',(2.49999999999998,0.,0.));
#351=CARTESIAN_POINT('',(2.49999999999998,-4.67202753874715E-15,38.15));
#352=CARTESIAN_POINT('Origin',(2.49999999999998,0.,0.));
#353=CARTESIAN_POINT('',(2.49999999999998,-4.42709817891768E-15,36.15));
#354=UNCERTAINTY_MEASURE_WITH_UNIT(LENGTH_MEASURE(0.01),#358,
'DISTANCE_ACCURACY_VALUE',
'Maximum model space distance between geometric entities at asserted c
onnectivities');
#355=UNCERTAINTY_MEASURE_WITH_UNIT(LENGTH_MEASURE(0.01),#358,
'DISTANCE_ACCURACY_VALUE',
'Maximum model space distance between geometric entities at asserted c
onnectivities');
#356=(
GEOMETRIC_REPRESENTATION_CONTEXT(3)
GLOBAL_UNCERTAINTY_ASSIGNED_CONTEXT((#354))
GLOBAL_UNIT_ASSIGNED_CONTEXT((#358,#360,#361))
REPRESENTATION_CONTEXT('','3D')
);
#357=(
GEOMETRIC_REPRESENTATION_CONTEXT(3)
GLOBAL_UNCERTAINTY_ASSIGNED_CONTEXT((#355))
GLOBAL_UNIT_ASSIGNED_CONTEXT((#358,#360,#361))
REPRESENTATION_CONTEXT('','3D')
);
#358=(
LENGTH_UNIT()
NAMED_UNIT(*)
SI_UNIT(.MILLI.,.METRE.)
);
#359=(
LENGTH_UNIT()
NAMED_UNIT(*)
SI_UNIT(.CENTI.,.METRE.)
);
#360=(
NAMED_UNIT(*)
PLANE_ANGLE_UNIT()
SI_UNIT($,.RADIAN.)
);
#361=(
NAMED_UNIT(*)
SI_UNIT($,.STERADIAN.)
SOLID_ANGLE_UNIT()
);
#362=SHAPE_DEFINITION_REPRESENTATION(#363,#364);
#363=PRODUCT_DEFINITION_SHAPE('',$,#366);
#364=SHAPE_REPRESENTATION('',(#188),#356);
#365=PRODUCT_DEFINITION_CONTEXT('part definition',#370,'design');
#366=PRODUCT_DEFINITION('T14 30\X\D720','T14 30\X\D720',#367,#365);
#367=PRODUCT_DEFINITION_FORMATION('',$,#372);
#368=PRODUCT_RELATED_PRODUCT_CATEGORY('T14 30\X\D720','T14 30\X\D720',(#372));
#369=APPLICATION_PROTOCOL_DEFINITION('international standard',
'automotive_design',2009,#370);
#370=APPLICATION_CONTEXT(
'Core Data for Automotive Mechanical Design Process');
#371=PRODUCT_CONTEXT('part definition',#370,'mechanical');
#372=PRODUCT('T14 30\X\D720','T14 30\X\D720',$,(#371));
#373=PRESENTATION_STYLE_ASSIGNMENT((#374));
#374=SURFACE_STYLE_USAGE(.BOTH.,#377);
#375=SURFACE_STYLE_RENDERING_WITH_PROPERTIES($,#381,(#376));
#376=SURFACE_STYLE_TRANSPARENT(0.);
#377=SURFACE_SIDE_STYLE('',(#378,#375));
#378=SURFACE_STYLE_FILL_AREA(#379);
#379=FILL_AREA_STYLE('',(#380));
#380=FILL_AREA_STYLE_COLOUR('',#381);
#381=COLOUR_RGB('',0.749019607843137,0.749019607843137,0.749019607843137);
ENDSEC;
END-ISO-10303-21;
