ISO-10303-21;
HEADER;
/* Generated by software containing ST-Developer
 * from STEP Tools, Inc. (www.steptools.com) 
 */

FILE_DESCRIPTION(
/* description */ (''),
/* implementation_level */ '2;1');

FILE_NAME(
/* name */ 
'\\\\Tske00\\w\\Work\\TOSTE\\\X2\7D99624B\X0\\\02_\X2\6EB663A5\X0\\\\X2\6EB663A530EC30B830E530FC30B530FC\X0\\\
\X2\30A830AD30BB30F330C830EC30B830E530FC30B530FC\X0\\\T14 15\X\D703.st
p',
/* time_stamp */ '2022-04-12T11:36:17+09:00',
/* author */ ('3dcad-eng'),
/* organization */ (''),
/* preprocessor_version */ 'ST-DEVELOPER v18.1',
/* originating_system */ 'Autodesk Inventor 2022',
/* authorisation */ '');

FILE_SCHEMA (('AUTOMOTIVE_DESIGN { 1 0 10303 214 3 1 1 }'));
ENDSEC;

DATA;
#10=MECHANICAL_DESIGN_GEOMETRIC_PRESENTATION_REPRESENTATION('',(#13),#342);
#11=SHAPE_REPRESENTATION_RELATIONSHIP('SRR','None',#349,#12);
#12=ADVANCED_BREP_SHAPE_REPRESENTATION('',(#14),#341);
#13=STYLED_ITEM('',(#358),#14);
#14=MANIFOLD_SOLID_BREP('\X2\30BD30EA30C330C9\X0\1',#162);
#15=FACE_BOUND('',#46,.T.);
#16=PLANE('',#199);
#17=CONICAL_SURFACE('',#196,7.82500203382312,1.56857585785742);
#18=CONICAL_SURFACE('',#198,7.00333070887522,0.00222046893748437);
#19=LINE('',#323,#24);
#20=LINE('',#326,#25);
#21=LINE('',#329,#26);
#22=LINE('',#336,#27);
#23=LINE('',#338,#28);
#24=VECTOR('',#234,8.65);
#25=VECTOR('',#237,7.82500203382312);
#26=VECTOR('',#242,7.00333070887522);
#27=VECTOR('',#251,19.05);
#28=VECTOR('',#254,17.85);
#29=CYLINDRICAL_SURFACE('',#194,8.65);
#30=CYLINDRICAL_SURFACE('',#202,19.05);
#31=CYLINDRICAL_SURFACE('',#203,17.85);
#32=FACE_OUTER_BOUND('',#40,.T.);
#33=FACE_OUTER_BOUND('',#41,.T.);
#34=FACE_OUTER_BOUND('',#42,.T.);
#35=FACE_OUTER_BOUND('',#43,.T.);
#36=FACE_OUTER_BOUND('',#44,.T.);
#37=FACE_OUTER_BOUND('',#45,.T.);
#38=FACE_OUTER_BOUND('',#47,.T.);
#39=FACE_OUTER_BOUND('',#48,.T.);
#40=EDGE_LOOP('',(#106,#107,#108,#109,#110,#111,#112,#113));
#41=EDGE_LOOP('',(#114,#115,#116,#117,#118,#119,#120,#121));
#42=EDGE_LOOP('',(#122,#123,#124,#125,#126,#127));
#43=EDGE_LOOP('',(#128,#129,#130,#131));
#44=EDGE_LOOP('',(#132,#133,#134,#135,#136,#137));
#45=EDGE_LOOP('',(#138));
#46=EDGE_LOOP('',(#139));
#47=EDGE_LOOP('',(#140,#141,#142,#143,#144,#145));
#48=EDGE_LOOP('',(#146,#147,#148,#149,#150,#151));
#49=B_SPLINE_CURVE_WITH_KNOTS('',1,(#280,#281),.UNSPECIFIED.,.F.,.F.,(2,
2),(0.0315291100633486,1.8824890281057),.UNSPECIFIED.);
#50=B_SPLINE_CURVE_WITH_KNOTS('',1,(#313,#314),.UNSPECIFIED.,.F.,.F.,(2,
2),(-1.75943829280516,-0.0305928832977722),.UNSPECIFIED.);
#51=CIRCLE('',#182,17.85);
#52=CIRCLE('',#183,17.85);
#53=CIRCLE('',#184,7.0066573501042);
#54=CIRCLE('',#185,7.0066573501042);
#55=CIRCLE('',#186,7.0066573501042);
#56=CIRCLE('',#187,17.85);
#57=CIRCLE('',#188,8.65);
#58=CIRCLE('',#189,8.65);
#59=CIRCLE('',#190,8.65);
#60=CIRCLE('',#191,19.05);
#61=CIRCLE('',#192,19.05);
#62=CIRCLE('',#193,19.05);
#63=CIRCLE('',#195,8.65);
#64=CIRCLE('',#197,7.00000406764623);
#65=CIRCLE('',#200,19.05);
#66=CIRCLE('',#201,17.85);
#67=VERTEX_POINT('',#274);
#68=VERTEX_POINT('',#275);
#69=VERTEX_POINT('',#277);
#70=VERTEX_POINT('',#279);
#71=VERTEX_POINT('',#282);
#72=VERTEX_POINT('',#284);
#73=VERTEX_POINT('',#306);
#74=VERTEX_POINT('',#307);
#75=VERTEX_POINT('',#309);
#76=VERTEX_POINT('',#312);
#77=VERTEX_POINT('',#315);
#78=VERTEX_POINT('',#317);
#79=VERTEX_POINT('',#321);
#80=VERTEX_POINT('',#325);
#81=VERTEX_POINT('',#331);
#82=VERTEX_POINT('',#333);
#83=EDGE_CURVE('',#67,#68,#51,.T.);
#84=EDGE_CURVE('',#69,#67,#52,.T.);
#85=EDGE_CURVE('',#69,#70,#49,.T.);
#86=EDGE_CURVE('',#70,#71,#53,.T.);
#87=EDGE_CURVE('',#71,#72,#54,.T.);
#88=EDGE_CURVE('',#72,#70,#55,.T.);
#89=EDGE_CURVE('',#68,#69,#56,.T.);
#90=EDGE_CURVE('',#73,#74,#57,.T.);
#91=EDGE_CURVE('',#75,#73,#58,.T.);
#92=EDGE_CURVE('',#74,#75,#59,.T.);
#93=EDGE_CURVE('',#74,#76,#50,.T.);
#94=EDGE_CURVE('',#76,#77,#60,.T.);
#95=EDGE_CURVE('',#77,#78,#61,.T.);
#96=EDGE_CURVE('',#78,#76,#62,.T.);
#97=EDGE_CURVE('',#79,#79,#63,.T.);
#98=EDGE_CURVE('',#79,#75,#19,.T.);
#99=EDGE_CURVE('',#79,#80,#20,.T.);
#100=EDGE_CURVE('',#80,#80,#64,.T.);
#101=EDGE_CURVE('',#80,#72,#21,.T.);
#102=EDGE_CURVE('',#81,#81,#65,.T.);
#103=EDGE_CURVE('',#82,#82,#66,.T.);
#104=EDGE_CURVE('',#77,#81,#22,.T.);
#105=EDGE_CURVE('',#68,#82,#23,.T.);
#106=ORIENTED_EDGE('',*,*,#83,.F.);
#107=ORIENTED_EDGE('',*,*,#84,.F.);
#108=ORIENTED_EDGE('',*,*,#85,.T.);
#109=ORIENTED_EDGE('',*,*,#86,.T.);
#110=ORIENTED_EDGE('',*,*,#87,.T.);
#111=ORIENTED_EDGE('',*,*,#88,.T.);
#112=ORIENTED_EDGE('',*,*,#85,.F.);
#113=ORIENTED_EDGE('',*,*,#89,.F.);
#114=ORIENTED_EDGE('',*,*,#90,.F.);
#115=ORIENTED_EDGE('',*,*,#91,.F.);
#116=ORIENTED_EDGE('',*,*,#92,.F.);
#117=ORIENTED_EDGE('',*,*,#93,.T.);
#118=ORIENTED_EDGE('',*,*,#94,.T.);
#119=ORIENTED_EDGE('',*,*,#95,.T.);
#120=ORIENTED_EDGE('',*,*,#96,.T.);
#121=ORIENTED_EDGE('',*,*,#93,.F.);
#122=ORIENTED_EDGE('',*,*,#97,.F.);
#123=ORIENTED_EDGE('',*,*,#98,.T.);
#124=ORIENTED_EDGE('',*,*,#91,.T.);
#125=ORIENTED_EDGE('',*,*,#90,.T.);
#126=ORIENTED_EDGE('',*,*,#92,.T.);
#127=ORIENTED_EDGE('',*,*,#98,.F.);
#128=ORIENTED_EDGE('',*,*,#97,.T.);
#129=ORIENTED_EDGE('',*,*,#99,.T.);
#130=ORIENTED_EDGE('',*,*,#100,.F.);
#131=ORIENTED_EDGE('',*,*,#99,.F.);
#132=ORIENTED_EDGE('',*,*,#100,.T.);
#133=ORIENTED_EDGE('',*,*,#101,.T.);
#134=ORIENTED_EDGE('',*,*,#87,.F.);
#135=ORIENTED_EDGE('',*,*,#86,.F.);
#136=ORIENTED_EDGE('',*,*,#88,.F.);
#137=ORIENTED_EDGE('',*,*,#101,.F.);
#138=ORIENTED_EDGE('',*,*,#102,.F.);
#139=ORIENTED_EDGE('',*,*,#103,.T.);
#140=ORIENTED_EDGE('',*,*,#96,.F.);
#141=ORIENTED_EDGE('',*,*,#95,.F.);
#142=ORIENTED_EDGE('',*,*,#104,.T.);
#143=ORIENTED_EDGE('',*,*,#102,.T.);
#144=ORIENTED_EDGE('',*,*,#104,.F.);
#145=ORIENTED_EDGE('',*,*,#94,.F.);
#146=ORIENTED_EDGE('',*,*,#83,.T.);
#147=ORIENTED_EDGE('',*,*,#105,.T.);
#148=ORIENTED_EDGE('',*,*,#103,.F.);
#149=ORIENTED_EDGE('',*,*,#105,.F.);
#150=ORIENTED_EDGE('',*,*,#89,.T.);
#151=ORIENTED_EDGE('',*,*,#84,.T.);
#152=(
BOUNDED_SURFACE()
B_SPLINE_SURFACE(1,2,((#256,#257,#258,#259,#260,#261,#262,#263,#264),(#265,
#266,#267,#268,#269,#270,#271,#272,#273)),.UNSPECIFIED.,.F.,.T.,.F.)
B_SPLINE_SURFACE_WITH_KNOTS((2,2),(3,2,2,2,3),(-0.311549666040315,1.99240544752959),
(-3.14159265358979,-1.5707963267949,0.,1.5707963267949,3.14159265358979),
 .UNSPECIFIED.)
GEOMETRIC_REPRESENTATION_ITEM()
RATIONAL_B_SPLINE_SURFACE(((1.,0.707106781186548,1.,0.707106781186548,1.,
0.707106781186548,1.,0.707106781186548,1.),(1.,0.707106781186548,1.,0.707106781186548,
1.,0.707106781186548,1.,0.707106781186548,1.)))
REPRESENTATION_ITEM('')
SURFACE()
);
#153=(
BOUNDED_SURFACE()
B_SPLINE_SURFACE(1,2,((#288,#289,#290,#291,#292,#293,#294,#295,#296),(#297,
#298,#299,#300,#301,#302,#303,#304,#305)),.UNSPECIFIED.,.F.,.T.,.F.)
B_SPLINE_SURFACE_WITH_KNOTS((2,2),(3,2,2,2,3),(-0.312756830520441,1.88755998012674),
(-3.14159265358979,-1.5707963267949,0.,1.5707963267949,3.14159265358979),
 .UNSPECIFIED.)
GEOMETRIC_REPRESENTATION_ITEM()
RATIONAL_B_SPLINE_SURFACE(((1.,0.707106781186548,1.,0.707106781186548,1.,
0.707106781186548,1.,0.707106781186548,1.),(1.,0.707106781186548,1.,0.707106781186548,
1.,0.707106781186548,1.,0.707106781186548,1.)))
REPRESENTATION_ITEM('')
SURFACE()
);
#154=ADVANCED_FACE('',(#32),#152,.T.);
#155=ADVANCED_FACE('',(#33),#153,.F.);
#156=ADVANCED_FACE('',(#34),#29,.T.);
#157=ADVANCED_FACE('',(#35),#17,.F.);
#158=ADVANCED_FACE('',(#36),#18,.F.);
#159=ADVANCED_FACE('',(#37,#15),#16,.T.);
#160=ADVANCED_FACE('',(#38),#30,.T.);
#161=ADVANCED_FACE('',(#39),#31,.F.);
#162=CLOSED_SHELL('',(#154,#155,#156,#157,#158,#159,#160,#161));
#163=DERIVED_UNIT_ELEMENT(#165,1.);
#164=DERIVED_UNIT_ELEMENT(#344,-3.);
#165=(
MASS_UNIT()
NAMED_UNIT(*)
SI_UNIT($,.GRAM.)
);
#166=DERIVED_UNIT((#163,#164));
#167=MEASURE_REPRESENTATION_ITEM('density measure',
POSITIVE_RATIO_MEASURE(1.),#166);
#168=PROPERTY_DEFINITION_REPRESENTATION(#173,#170);
#169=PROPERTY_DEFINITION_REPRESENTATION(#174,#171);
#170=REPRESENTATION('material name',(#172),#341);
#171=REPRESENTATION('density',(#167),#341);
#172=DESCRIPTIVE_REPRESENTATION_ITEM('\X2\4E00822C\X0\','\X2\4E00822C\X0\');
#173=PROPERTY_DEFINITION('material property','material name',#351);
#174=PROPERTY_DEFINITION('material property','density of part',#351);
#175=DATE_TIME_ROLE('creation_date');
#176=APPLIED_DATE_AND_TIME_ASSIGNMENT(#177,#175,(#351));
#177=DATE_AND_TIME(#178,#179);
#178=CALENDAR_DATE(2022,29,3);
#179=LOCAL_TIME(0,0,0.,#180);
#180=COORDINATED_UNIVERSAL_TIME_OFFSET(0,0,.BEHIND.);
#181=AXIS2_PLACEMENT_3D('placement',#255,#204,#205);
#182=AXIS2_PLACEMENT_3D('',#276,#206,#207);
#183=AXIS2_PLACEMENT_3D('',#278,#208,#209);
#184=AXIS2_PLACEMENT_3D('',#283,#210,#211);
#185=AXIS2_PLACEMENT_3D('',#285,#212,#213);
#186=AXIS2_PLACEMENT_3D('',#286,#214,#215);
#187=AXIS2_PLACEMENT_3D('',#287,#216,#217);
#188=AXIS2_PLACEMENT_3D('',#308,#218,#219);
#189=AXIS2_PLACEMENT_3D('',#310,#220,#221);
#190=AXIS2_PLACEMENT_3D('',#311,#222,#223);
#191=AXIS2_PLACEMENT_3D('',#316,#224,#225);
#192=AXIS2_PLACEMENT_3D('',#318,#226,#227);
#193=AXIS2_PLACEMENT_3D('',#319,#228,#229);
#194=AXIS2_PLACEMENT_3D('',#320,#230,#231);
#195=AXIS2_PLACEMENT_3D('',#322,#232,#233);
#196=AXIS2_PLACEMENT_3D('',#324,#235,#236);
#197=AXIS2_PLACEMENT_3D('',#327,#238,#239);
#198=AXIS2_PLACEMENT_3D('',#328,#240,#241);
#199=AXIS2_PLACEMENT_3D('',#330,#243,#244);
#200=AXIS2_PLACEMENT_3D('',#332,#245,#246);
#201=AXIS2_PLACEMENT_3D('',#334,#247,#248);
#202=AXIS2_PLACEMENT_3D('',#335,#249,#250);
#203=AXIS2_PLACEMENT_3D('',#337,#252,#253);
#204=DIRECTION('axis',(0.,0.,1.));
#205=DIRECTION('refdir',(1.,0.,0.));
#206=DIRECTION('center_axis',(1.,0.,0.));
#207=DIRECTION('ref_axis',(0.,0.,-1.));
#208=DIRECTION('center_axis',(1.,0.,0.));
#209=DIRECTION('ref_axis',(0.,0.,-1.));
#210=DIRECTION('center_axis',(1.,0.,0.));
#211=DIRECTION('ref_axis',(0.,0.,-1.));
#212=DIRECTION('center_axis',(1.,0.,0.));
#213=DIRECTION('ref_axis',(0.,0.,-1.));
#214=DIRECTION('center_axis',(1.,0.,0.));
#215=DIRECTION('ref_axis',(0.,0.,-1.));
#216=DIRECTION('center_axis',(1.,0.,0.));
#217=DIRECTION('ref_axis',(0.,0.,-1.));
#218=DIRECTION('center_axis',(1.,0.,0.));
#219=DIRECTION('ref_axis',(0.,0.,-1.));
#220=DIRECTION('center_axis',(1.,0.,0.));
#221=DIRECTION('ref_axis',(0.,0.,-1.));
#222=DIRECTION('center_axis',(1.,0.,0.));
#223=DIRECTION('ref_axis',(0.,0.,-1.));
#224=DIRECTION('center_axis',(1.,0.,0.));
#225=DIRECTION('ref_axis',(0.,0.,-1.));
#226=DIRECTION('center_axis',(1.,0.,0.));
#227=DIRECTION('ref_axis',(0.,0.,-1.));
#228=DIRECTION('center_axis',(1.,0.,0.));
#229=DIRECTION('ref_axis',(0.,0.,-1.));
#230=DIRECTION('center_axis',(1.,0.,0.));
#231=DIRECTION('ref_axis',(0.,0.,-1.));
#232=DIRECTION('center_axis',(1.,0.,0.));
#233=DIRECTION('ref_axis',(0.,0.,-1.));
#234=DIRECTION('',(-1.,0.,0.));
#235=DIRECTION('center_axis',(1.,0.,0.));
#236=DIRECTION('ref_axis',(0.,0.,-1.));
#237=DIRECTION('',(-0.0022204671128214,1.22464378009891E-16,-0.999997534759862));
#238=DIRECTION('center_axis',(1.,0.,0.));
#239=DIRECTION('ref_axis',(0.,0.,-1.));
#240=DIRECTION('center_axis',(-1.,0.,0.));
#241=DIRECTION('ref_axis',(0.,0.,-1.));
#242=DIRECTION('',(-0.999997534759862,-2.71928794232823E-19,0.00222046711282102));
#243=DIRECTION('center_axis',(-1.,0.,0.));
#244=DIRECTION('ref_axis',(0.,0.,1.));
#245=DIRECTION('center_axis',(1.,0.,0.));
#246=DIRECTION('ref_axis',(0.,0.,-1.));
#247=DIRECTION('center_axis',(1.,0.,0.));
#248=DIRECTION('ref_axis',(0.,0.,-1.));
#249=DIRECTION('center_axis',(1.,0.,0.));
#250=DIRECTION('ref_axis',(0.,0.,-1.));
#251=DIRECTION('',(-1.,0.,0.));
#252=DIRECTION('center_axis',(1.,0.,0.));
#253=DIRECTION('ref_axis',(0.,0.,-1.));
#254=DIRECTION('',(-1.,0.,0.));
#255=CARTESIAN_POINT('',(0.,0.,0.));
#256=CARTESIAN_POINT('Ctrl Pts',(-0.560554381963879,-19.7578730084882,-0.0821743638196756));
#257=CARTESIAN_POINT('Ctrl Pts',(-6.12110876392774,-19.7578730084882,-18.0143487276393));
#258=CARTESIAN_POINT('Ctrl Pts',(-6.12110876392774,2.4118248514956E-14,
-18.0143487276393));
#259=CARTESIAN_POINT('Ctrl Pts',(-6.12110876392773,19.7578730084882,-18.0143487276393));
#260=CARTESIAN_POINT('Ctrl Pts',(-0.560554381963864,19.7578730084882,-0.0821743638196274));
#261=CARTESIAN_POINT('Ctrl Pts',(5.,19.7578730084882,17.85));
#262=CARTESIAN_POINT('Ctrl Pts',(4.99999999999999,-2.4118248514956E-14,
17.85));
#263=CARTESIAN_POINT('Ctrl Pts',(4.99999999999998,-19.7578730084882,17.85));
#264=CARTESIAN_POINT('Ctrl Pts',(-0.560554381963879,-19.7578730084882,-0.0821743638196756));
#265=CARTESIAN_POINT('Ctrl Pts',(36.7815040458596,-6.33007579538694,-11.6615033626124));
#266=CARTESIAN_POINT('Ctrl Pts',(35.,-6.33007579538693,-17.4066573501042));
#267=CARTESIAN_POINT('Ctrl Pts',(35.,8.08363122410633E-15,-17.4066573501042));
#268=CARTESIAN_POINT('Ctrl Pts',(35.,6.33007579538695,-17.4066573501042));
#269=CARTESIAN_POINT('Ctrl Pts',(36.7815040458596,6.33007579538694,-11.6615033626124));
#270=CARTESIAN_POINT('Ctrl Pts',(38.5630080917192,6.33007579538693,-5.91634937512056));
#271=CARTESIAN_POINT('Ctrl Pts',(38.5630080917192,-8.08363122410633E-15,
-5.91634937512057));
#272=CARTESIAN_POINT('Ctrl Pts',(38.5630080917192,-6.33007579538695,-5.91634937512058));
#273=CARTESIAN_POINT('Ctrl Pts',(36.7815040458596,-6.33007579538694,-11.6615033626124));
#274=CARTESIAN_POINT('',(5.,0.,-17.85));
#275=CARTESIAN_POINT('',(5.,-2.18599453647803E-15,17.85));
#276=CARTESIAN_POINT('Origin',(5.,0.,0.));
#277=CARTESIAN_POINT('',(5.,-17.7583582581766,-1.80643626354568));
#278=CARTESIAN_POINT('Origin',(5.,0.,0.));
#279=CARTESIAN_POINT('',(35.,-6.97068523335778,-11.1090801077573));
#280=CARTESIAN_POINT('Ctrl Pts',(5.,-17.7583582581766,-1.80643626354568));
#281=CARTESIAN_POINT('Ctrl Pts',(35.,-6.97068523335779,-11.1090801077573));
#282=CARTESIAN_POINT('',(35.,0.,-17.4066573501042));
#283=CARTESIAN_POINT('Origin',(35.,0.,-10.4));
#284=CARTESIAN_POINT('',(35.,-8.58068049652739E-16,-3.3933426498958));
#285=CARTESIAN_POINT('Origin',(35.,0.,-10.4));
#286=CARTESIAN_POINT('Origin',(35.,0.,-10.4));
#287=CARTESIAN_POINT('Origin',(5.,0.,0.));
#288=CARTESIAN_POINT('Ctrl Pts',(-0.958017621414391,21.0141856074329,2.74647305800105E-14));
#289=CARTESIAN_POINT('Ctrl Pts',(5.,21.0141856074329,19.05));
#290=CARTESIAN_POINT('Ctrl Pts',(4.99999999999999,-2.54535130584259E-14,
19.05));
#291=CARTESIAN_POINT('Ctrl Pts',(4.99999999999999,-21.014185607433,19.05));
#292=CARTESIAN_POINT('Ctrl Pts',(-0.958017621414405,-21.0141856074329,-2.41207722266728E-14));
#293=CARTESIAN_POINT('Ctrl Pts',(-6.91603524282879,-21.0141856074329,-19.05));
#294=CARTESIAN_POINT('Ctrl Pts',(-6.91603524282879,2.54535130584259E-14,
-19.05));
#295=CARTESIAN_POINT('Ctrl Pts',(-6.91603524282878,21.014185607433,-19.05));
#296=CARTESIAN_POINT('Ctrl Pts',(-0.958017621414391,21.0141856074329,2.74647305800105E-14));
#297=CARTESIAN_POINT('Ctrl Pts',(37.2232471443138,7.84148874852018,-11.9414513533909));
#298=CARTESIAN_POINT('Ctrl Pts',(39.4464942886276,7.84148874852017,-4.83290270678183));
#299=CARTESIAN_POINT('Ctrl Pts',(39.4464942886276,-5.85894062262912E-15,
-4.83290270678184));
#300=CARTESIAN_POINT('Ctrl Pts',(39.4464942886276,-7.84148874852018,-4.83290270678185));
#301=CARTESIAN_POINT('Ctrl Pts',(37.2232471443138,-7.84148874852018,-11.9414513533909));
#302=CARTESIAN_POINT('Ctrl Pts',(35.,-7.84148874852017,-19.05));
#303=CARTESIAN_POINT('Ctrl Pts',(35.,5.85894062262912E-15,-19.05));
#304=CARTESIAN_POINT('Ctrl Pts',(35.,7.84148874852018,-19.05));
#305=CARTESIAN_POINT('Ctrl Pts',(37.2232471443138,7.84148874852018,-11.9414513533909));
#306=CARTESIAN_POINT('',(35.,0.,-19.05));
#307=CARTESIAN_POINT('',(35.,8.60851835988017,-11.2461156230717));
#308=CARTESIAN_POINT('Origin',(35.,0.,-10.4));
#309=CARTESIAN_POINT('',(35.,-1.05931948126246E-15,-1.75));
#310=CARTESIAN_POINT('Origin',(35.,0.,-10.4));
#311=CARTESIAN_POINT('Origin',(35.,0.,-10.4));
#312=CARTESIAN_POINT('',(4.99999999999999,18.9586444804297,-1.86341070745847));
#313=CARTESIAN_POINT('Ctrl Pts',(35.,8.60851835988017,-11.2461156230717));
#314=CARTESIAN_POINT('Ctrl Pts',(4.99999999999999,18.9586444804297,-1.86341070745847));
#315=CARTESIAN_POINT('',(4.99999999999999,-2.33295215237571E-15,19.05));
#316=CARTESIAN_POINT('Origin',(4.99999999999999,0.,0.));
#317=CARTESIAN_POINT('',(4.99999999999999,0.,-19.05));
#318=CARTESIAN_POINT('Origin',(4.99999999999999,0.,0.));
#319=CARTESIAN_POINT('Origin',(4.99999999999999,0.,0.));
#320=CARTESIAN_POINT('Origin',(36.5,0.,-10.4));
#321=CARTESIAN_POINT('',(38.,-1.05931948126246E-15,-1.75));
#322=CARTESIAN_POINT('Origin',(38.,0.,-10.4));
#323=CARTESIAN_POINT('',(36.5,-1.05931948126246E-15,-1.75));
#324=CARTESIAN_POINT('Origin',(37.9981681146319,0.,-10.4));
#325=CARTESIAN_POINT('',(37.9963362292638,-8.57253257546141E-16,-3.39999593235377));
#326=CARTESIAN_POINT('',(37.9981681146319,-9.58286369404301E-16,-2.57499796617688));
#327=CARTESIAN_POINT('Origin',(37.9963362292638,0.,-10.4));
#328=CARTESIAN_POINT('Origin',(36.4981681146319,0.,-10.4));
#329=CARTESIAN_POINT('',(36.4981681146319,-8.5766065359944E-16,-3.39666929112478));
#330=CARTESIAN_POINT('Origin',(-4.51414227183724E-15,0.,-19.05));
#331=CARTESIAN_POINT('',(-4.44089209850063E-15,-2.33295215237571E-15,19.05));
#332=CARTESIAN_POINT('Origin',(-4.44089209850063E-15,0.,0.));
#333=CARTESIAN_POINT('',(-4.16333634234434E-15,-2.18599453647803E-15,17.85));
#334=CARTESIAN_POINT('Origin',(-4.16333634234434E-15,0.,0.));
#335=CARTESIAN_POINT('Origin',(2.5,0.,0.));
#336=CARTESIAN_POINT('',(2.5,-2.33295215237571E-15,19.05));
#337=CARTESIAN_POINT('Origin',(2.5,0.,0.));
#338=CARTESIAN_POINT('',(2.5,-2.18599453647803E-15,17.85));
#339=UNCERTAINTY_MEASURE_WITH_UNIT(LENGTH_MEASURE(0.01),#343,
'DISTANCE_ACCURACY_VALUE',
'Maximum model space distance between geometric entities at asserted c
onnectivities');
#340=UNCERTAINTY_MEASURE_WITH_UNIT(LENGTH_MEASURE(0.01),#343,
'DISTANCE_ACCURACY_VALUE',
'Maximum model space distance between geometric entities at asserted c
onnectivities');
#341=(
GEOMETRIC_REPRESENTATION_CONTEXT(3)
GLOBAL_UNCERTAINTY_ASSIGNED_CONTEXT((#339))
GLOBAL_UNIT_ASSIGNED_CONTEXT((#343,#345,#346))
REPRESENTATION_CONTEXT('','3D')
);
#342=(
GEOMETRIC_REPRESENTATION_CONTEXT(3)
GLOBAL_UNCERTAINTY_ASSIGNED_CONTEXT((#340))
GLOBAL_UNIT_ASSIGNED_CONTEXT((#343,#345,#346))
REPRESENTATION_CONTEXT('','3D')
);
#343=(
LENGTH_UNIT()
NAMED_UNIT(*)
SI_UNIT(.MILLI.,.METRE.)
);
#344=(
LENGTH_UNIT()
NAMED_UNIT(*)
SI_UNIT(.CENTI.,.METRE.)
);
#345=(
NAMED_UNIT(*)
PLANE_ANGLE_UNIT()
SI_UNIT($,.RADIAN.)
);
#346=(
NAMED_UNIT(*)
SI_UNIT($,.STERADIAN.)
SOLID_ANGLE_UNIT()
);
#347=SHAPE_DEFINITION_REPRESENTATION(#348,#349);
#348=PRODUCT_DEFINITION_SHAPE('',$,#351);
#349=SHAPE_REPRESENTATION('',(#181),#341);
#350=PRODUCT_DEFINITION_CONTEXT('part definition',#355,'design');
#351=PRODUCT_DEFINITION('T14 15\X\D703','T14 15\X\D703',#352,#350);
#352=PRODUCT_DEFINITION_FORMATION('',$,#357);
#353=PRODUCT_RELATED_PRODUCT_CATEGORY('T14 15\X\D703','T14 15\X\D703',(#357));
#354=APPLICATION_PROTOCOL_DEFINITION('international standard',
'automotive_design',2009,#355);
#355=APPLICATION_CONTEXT(
'Core Data for Automotive Mechanical Design Process');
#356=PRODUCT_CONTEXT('part definition',#355,'mechanical');
#357=PRODUCT('T14 15\X\D703','T14 15\X\D703',$,(#356));
#358=PRESENTATION_STYLE_ASSIGNMENT((#359));
#359=SURFACE_STYLE_USAGE(.BOTH.,#362);
#360=SURFACE_STYLE_RENDERING_WITH_PROPERTIES($,#366,(#361));
#361=SURFACE_STYLE_TRANSPARENT(0.);
#362=SURFACE_SIDE_STYLE('',(#363,#360));
#363=SURFACE_STYLE_FILL_AREA(#364);
#364=FILL_AREA_STYLE('',(#365));
#365=FILL_AREA_STYLE_COLOUR('',#366);
#366=COLOUR_RGB('',0.749019607843137,0.749019607843137,0.749019607843137);
ENDSEC;
END-ISO-10303-21;
