ISO-10303-21;
HEADER;
/* Generated by software containing ST-Developer
 * from STEP Tools, Inc. (www.steptools.com) 
 */

FILE_DESCRIPTION(
/* description */ (''),
/* implementation_level */ '2;1');

FILE_NAME(
/* name */ 
'\\\\Tske00\\w\\Work\\TOSTE\\\X2\7D99624B\X0\\\02_\X2\6EB663A5\X0\\\\X2\6EB663A530EC30B830E530FC30B530FC\X0\\\
\X2\30B330F330BB30F330C830EC30B830E530FC30B530FC\X0\\\T-13 03\X\D702.s
tp',
/* time_stamp */ '2022-04-12T13:12:28+09:00',
/* author */ ('3dcad-eng'),
/* organization */ (''),
/* preprocessor_version */ 'ST-DEVELOPER v18.1',
/* originating_system */ 'Autodesk Inventor 2022',
/* authorisation */ '');

FILE_SCHEMA (('AUTOMOTIVE_DESIGN { 1 0 10303 214 3 1 1 }'));
ENDSEC;

DATA;
#10=MECHANICAL_DESIGN_GEOMETRIC_PRESENTATION_REPRESENTATION('',(#13),#251);
#11=SHAPE_REPRESENTATION_RELATIONSHIP('SRR','None',#258,#12);
#12=ADVANCED_BREP_SHAPE_REPRESENTATION('',(#14),#250);
#13=STYLED_ITEM('',(#267),#14);
#14=MANIFOLD_SOLID_BREP('\X2\30BD30EA30C330C9\X0\1',#131);
#15=FACE_BOUND('',#36,.T.);
#16=FACE_BOUND('',#39,.T.);
#17=PLANE('',#163);
#18=PLANE('',#166);
#19=CYLINDRICAL_SURFACE('',#159,5.25);
#20=CYLINDRICAL_SURFACE('',#161,6.9);
#21=CYLINDRICAL_SURFACE('',#164,7.);
#22=CYLINDRICAL_SURFACE('',#168,8.65);
#23=FACE_OUTER_BOUND('',#31,.T.);
#24=FACE_OUTER_BOUND('',#32,.T.);
#25=FACE_OUTER_BOUND('',#33,.T.);
#26=FACE_OUTER_BOUND('',#34,.T.);
#27=FACE_OUTER_BOUND('',#35,.T.);
#28=FACE_OUTER_BOUND('',#37,.T.);
#29=FACE_OUTER_BOUND('',#38,.T.);
#30=FACE_OUTER_BOUND('',#40,.T.);
#31=EDGE_LOOP('',(#89,#90,#91,#92));
#32=EDGE_LOOP('',(#93,#94,#95,#96,#97,#98));
#33=EDGE_LOOP('',(#99,#100,#101,#102));
#34=EDGE_LOOP('',(#103,#104,#105,#106,#107));
#35=EDGE_LOOP('',(#108));
#36=EDGE_LOOP('',(#109));
#37=EDGE_LOOP('',(#110,#111,#112,#113));
#38=EDGE_LOOP('',(#114));
#39=EDGE_LOOP('',(#115));
#40=EDGE_LOOP('',(#116,#117,#118,#119,#120));
#41=LINE('',#218,#47);
#42=LINE('',#225,#48);
#43=LINE('',#233,#49);
#44=LINE('',#237,#50);
#45=LINE('',#241,#51);
#46=LINE('',#247,#52);
#47=VECTOR('',#175,7.);
#48=VECTOR('',#182,8.65);
#49=VECTOR('',#193,5.25);
#50=VECTOR('',#198,6.9);
#51=VECTOR('',#203,7.);
#52=VECTOR('',#212,8.65);
#53=CIRCLE('',#152,7.);
#54=CIRCLE('',#153,5.25);
#55=CIRCLE('',#155,6.9);
#56=CIRCLE('',#156,8.65);
#57=CIRCLE('',#157,8.65);
#58=CIRCLE('',#158,6.9);
#59=CIRCLE('',#160,5.25);
#60=CIRCLE('',#162,6.9);
#61=CIRCLE('',#165,7.);
#62=CIRCLE('',#167,8.65);
#63=VERTEX_POINT('',#215);
#64=VERTEX_POINT('',#217);
#65=VERTEX_POINT('',#221);
#66=VERTEX_POINT('',#222);
#67=VERTEX_POINT('',#224);
#68=VERTEX_POINT('',#226);
#69=VERTEX_POINT('',#231);
#70=VERTEX_POINT('',#235);
#71=VERTEX_POINT('',#240);
#72=VERTEX_POINT('',#244);
#73=EDGE_CURVE('',#63,#63,#53,.T.);
#74=EDGE_CURVE('',#63,#64,#41,.T.);
#75=EDGE_CURVE('',#64,#64,#54,.T.);
#76=EDGE_CURVE('',#65,#66,#55,.T.);
#77=EDGE_CURVE('',#65,#67,#42,.T.);
#78=EDGE_CURVE('',#67,#68,#56,.T.);
#79=EDGE_CURVE('',#68,#67,#57,.T.);
#80=EDGE_CURVE('',#66,#65,#58,.T.);
#81=EDGE_CURVE('',#69,#69,#59,.T.);
#82=EDGE_CURVE('',#69,#64,#43,.T.);
#83=EDGE_CURVE('',#70,#70,#60,.T.);
#84=EDGE_CURVE('',#70,#66,#44,.T.);
#85=EDGE_CURVE('',#63,#71,#45,.T.);
#86=EDGE_CURVE('',#71,#71,#61,.T.);
#87=EDGE_CURVE('',#72,#72,#62,.T.);
#88=EDGE_CURVE('',#68,#72,#46,.T.);
#89=ORIENTED_EDGE('',*,*,#73,.F.);
#90=ORIENTED_EDGE('',*,*,#74,.T.);
#91=ORIENTED_EDGE('',*,*,#75,.T.);
#92=ORIENTED_EDGE('',*,*,#74,.F.);
#93=ORIENTED_EDGE('',*,*,#76,.F.);
#94=ORIENTED_EDGE('',*,*,#77,.T.);
#95=ORIENTED_EDGE('',*,*,#78,.T.);
#96=ORIENTED_EDGE('',*,*,#79,.T.);
#97=ORIENTED_EDGE('',*,*,#77,.F.);
#98=ORIENTED_EDGE('',*,*,#80,.F.);
#99=ORIENTED_EDGE('',*,*,#81,.T.);
#100=ORIENTED_EDGE('',*,*,#82,.T.);
#101=ORIENTED_EDGE('',*,*,#75,.F.);
#102=ORIENTED_EDGE('',*,*,#82,.F.);
#103=ORIENTED_EDGE('',*,*,#83,.F.);
#104=ORIENTED_EDGE('',*,*,#84,.T.);
#105=ORIENTED_EDGE('',*,*,#80,.T.);
#106=ORIENTED_EDGE('',*,*,#76,.T.);
#107=ORIENTED_EDGE('',*,*,#84,.F.);
#108=ORIENTED_EDGE('',*,*,#83,.T.);
#109=ORIENTED_EDGE('',*,*,#81,.F.);
#110=ORIENTED_EDGE('',*,*,#73,.T.);
#111=ORIENTED_EDGE('',*,*,#85,.T.);
#112=ORIENTED_EDGE('',*,*,#86,.F.);
#113=ORIENTED_EDGE('',*,*,#85,.F.);
#114=ORIENTED_EDGE('',*,*,#87,.F.);
#115=ORIENTED_EDGE('',*,*,#86,.T.);
#116=ORIENTED_EDGE('',*,*,#79,.F.);
#117=ORIENTED_EDGE('',*,*,#88,.T.);
#118=ORIENTED_EDGE('',*,*,#87,.T.);
#119=ORIENTED_EDGE('',*,*,#88,.F.);
#120=ORIENTED_EDGE('',*,*,#78,.F.);
#121=CONICAL_SURFACE('',#151,7.,0.215357699697738);
#122=CONICAL_SURFACE('',#154,8.65,0.215357699697738);
#123=ADVANCED_FACE('',(#23),#121,.F.);
#124=ADVANCED_FACE('',(#24),#122,.T.);
#125=ADVANCED_FACE('',(#25),#19,.F.);
#126=ADVANCED_FACE('',(#26),#20,.T.);
#127=ADVANCED_FACE('',(#27,#15),#17,.T.);
#128=ADVANCED_FACE('',(#28),#21,.F.);
#129=ADVANCED_FACE('',(#29,#16),#18,.T.);
#130=ADVANCED_FACE('',(#30),#22,.T.);
#131=CLOSED_SHELL('',(#123,#124,#125,#126,#127,#128,#129,#130));
#132=DERIVED_UNIT_ELEMENT(#134,1.);
#133=DERIVED_UNIT_ELEMENT(#253,-3.);
#134=(
MASS_UNIT()
NAMED_UNIT(*)
SI_UNIT($,.GRAM.)
);
#135=DERIVED_UNIT((#132,#133));
#136=MEASURE_REPRESENTATION_ITEM('density measure',
POSITIVE_RATIO_MEASURE(1.),#135);
#137=PROPERTY_DEFINITION_REPRESENTATION(#142,#139);
#138=PROPERTY_DEFINITION_REPRESENTATION(#143,#140);
#139=REPRESENTATION('material name',(#141),#250);
#140=REPRESENTATION('density',(#136),#250);
#141=DESCRIPTIVE_REPRESENTATION_ITEM('\X2\4E00822C\X0\','\X2\4E00822C\X0\');
#142=PROPERTY_DEFINITION('material property','material name',#260);
#143=PROPERTY_DEFINITION('material property','density of part',#260);
#144=DATE_TIME_ROLE('creation_date');
#145=APPLIED_DATE_AND_TIME_ASSIGNMENT(#146,#144,(#260));
#146=DATE_AND_TIME(#147,#148);
#147=CALENDAR_DATE(2022,7,4);
#148=LOCAL_TIME(0,0,0.,#149);
#149=COORDINATED_UNIVERSAL_TIME_OFFSET(0,0,.BEHIND.);
#150=AXIS2_PLACEMENT_3D('placement',#213,#169,#170);
#151=AXIS2_PLACEMENT_3D('',#214,#171,#172);
#152=AXIS2_PLACEMENT_3D('',#216,#173,#174);
#153=AXIS2_PLACEMENT_3D('',#219,#176,#177);
#154=AXIS2_PLACEMENT_3D('',#220,#178,#179);
#155=AXIS2_PLACEMENT_3D('',#223,#180,#181);
#156=AXIS2_PLACEMENT_3D('',#227,#183,#184);
#157=AXIS2_PLACEMENT_3D('',#228,#185,#186);
#158=AXIS2_PLACEMENT_3D('',#229,#187,#188);
#159=AXIS2_PLACEMENT_3D('',#230,#189,#190);
#160=AXIS2_PLACEMENT_3D('',#232,#191,#192);
#161=AXIS2_PLACEMENT_3D('',#234,#194,#195);
#162=AXIS2_PLACEMENT_3D('',#236,#196,#197);
#163=AXIS2_PLACEMENT_3D('',#238,#199,#200);
#164=AXIS2_PLACEMENT_3D('',#239,#201,#202);
#165=AXIS2_PLACEMENT_3D('',#242,#204,#205);
#166=AXIS2_PLACEMENT_3D('',#243,#206,#207);
#167=AXIS2_PLACEMENT_3D('',#245,#208,#209);
#168=AXIS2_PLACEMENT_3D('',#246,#210,#211);
#169=DIRECTION('axis',(0.,0.,1.));
#170=DIRECTION('refdir',(1.,0.,0.));
#171=DIRECTION('center_axis',(-1.,0.,0.));
#172=DIRECTION('ref_axis',(0.,0.,-1.));
#173=DIRECTION('center_axis',(1.,0.,0.));
#174=DIRECTION('ref_axis',(0.,0.,-1.));
#175=DIRECTION('',(0.976900017396262,2.61703198616852E-17,-0.213696878805432));
#176=DIRECTION('center_axis',(1.,0.,0.));
#177=DIRECTION('ref_axis',(0.,0.,-1.));
#178=DIRECTION('center_axis',(-1.,0.,0.));
#179=DIRECTION('ref_axis',(0.,0.,1.));
#180=DIRECTION('center_axis',(1.,0.,0.));
#181=DIRECTION('ref_axis',(0.,0.,-1.));
#182=DIRECTION('',(-0.976900017396262,2.61703198616852E-17,-0.213696878805432));
#183=DIRECTION('center_axis',(1.,0.,0.));
#184=DIRECTION('ref_axis',(0.,0.,-1.));
#185=DIRECTION('center_axis',(1.,0.,0.));
#186=DIRECTION('ref_axis',(0.,0.,-1.));
#187=DIRECTION('center_axis',(1.,0.,0.));
#188=DIRECTION('ref_axis',(0.,0.,-1.));
#189=DIRECTION('center_axis',(1.,0.,0.));
#190=DIRECTION('ref_axis',(0.,0.,-1.));
#191=DIRECTION('center_axis',(1.,0.,0.));
#192=DIRECTION('ref_axis',(0.,0.,-1.));
#193=DIRECTION('',(-1.,0.,0.));
#194=DIRECTION('center_axis',(1.,0.,0.));
#195=DIRECTION('ref_axis',(0.,0.,-1.));
#196=DIRECTION('center_axis',(1.,0.,0.));
#197=DIRECTION('ref_axis',(0.,0.,-1.));
#198=DIRECTION('',(-1.,0.,0.));
#199=DIRECTION('center_axis',(1.,0.,0.));
#200=DIRECTION('ref_axis',(0.,0.,-1.));
#201=DIRECTION('center_axis',(1.,0.,0.));
#202=DIRECTION('ref_axis',(0.,0.,-1.));
#203=DIRECTION('',(-1.,0.,0.));
#204=DIRECTION('center_axis',(1.,0.,0.));
#205=DIRECTION('ref_axis',(0.,0.,-1.));
#206=DIRECTION('center_axis',(-1.,0.,0.));
#207=DIRECTION('ref_axis',(0.,0.,1.));
#208=DIRECTION('center_axis',(1.,0.,0.));
#209=DIRECTION('ref_axis',(0.,0.,-1.));
#210=DIRECTION('center_axis',(1.,0.,0.));
#211=DIRECTION('ref_axis',(0.,0.,-1.));
#212=DIRECTION('',(-1.,0.,0.));
#213=CARTESIAN_POINT('',(0.,0.,0.));
#214=CARTESIAN_POINT('Origin',(3.,0.,0.));
#215=CARTESIAN_POINT('',(3.,-8.57252759403147E-16,7.));
#216=CARTESIAN_POINT('Origin',(3.,0.,0.));
#217=CARTESIAN_POINT('',(11.,-6.42939569552361E-16,5.25));
#218=CARTESIAN_POINT('',(3.,-8.57252759403147E-16,7.));
#219=CARTESIAN_POINT('Origin',(11.,0.,0.));
#220=CARTESIAN_POINT('Origin',(3.,0.,0.));
#221=CARTESIAN_POINT('',(11.,0.,-6.9));
#222=CARTESIAN_POINT('',(11.,-8.45006291411674E-16,6.9));
#223=CARTESIAN_POINT('Origin',(11.,0.,0.));
#224=CARTESIAN_POINT('',(3.,1.05931948126246E-15,-8.65));
#225=CARTESIAN_POINT('',(3.,1.05931948126246E-15,-8.65));
#226=CARTESIAN_POINT('',(3.,0.,8.65));
#227=CARTESIAN_POINT('Origin',(3.,0.,0.));
#228=CARTESIAN_POINT('Origin',(3.,0.,0.));
#229=CARTESIAN_POINT('Origin',(11.,0.,0.));
#230=CARTESIAN_POINT('Origin',(12.5,0.,0.));
#231=CARTESIAN_POINT('',(14.,-6.42939569552361E-16,5.25));
#232=CARTESIAN_POINT('Origin',(14.,0.,0.));
#233=CARTESIAN_POINT('',(12.5,-6.42939569552361E-16,5.25));
#234=CARTESIAN_POINT('Origin',(12.5,0.,0.));
#235=CARTESIAN_POINT('',(14.,-8.45006291411674E-16,6.9));
#236=CARTESIAN_POINT('Origin',(14.,0.,0.));
#237=CARTESIAN_POINT('',(12.5,-8.45006291411674E-16,6.9));
#238=CARTESIAN_POINT('Origin',(14.,0.,-5.25));
#239=CARTESIAN_POINT('Origin',(1.5,0.,0.));
#240=CARTESIAN_POINT('',(-5.55111512312578E-16,-8.57252759403147E-16,7.));
#241=CARTESIAN_POINT('',(1.5,-8.57252759403147E-16,7.));
#242=CARTESIAN_POINT('Origin',(-5.55111512312578E-16,0.,0.));
#243=CARTESIAN_POINT('Origin',(-1.05931948126246E-15,0.,-8.65));
#244=CARTESIAN_POINT('',(-1.11022302462516E-15,-1.05931948126246E-15,8.65));
#245=CARTESIAN_POINT('Origin',(-1.11022302462516E-15,0.,0.));
#246=CARTESIAN_POINT('Origin',(1.5,0.,0.));
#247=CARTESIAN_POINT('',(1.5,-1.05931948126246E-15,8.65));
#248=UNCERTAINTY_MEASURE_WITH_UNIT(LENGTH_MEASURE(0.01),#252,
'DISTANCE_ACCURACY_VALUE',
'Maximum model space distance between geometric entities at asserted c
onnectivities');
#249=UNCERTAINTY_MEASURE_WITH_UNIT(LENGTH_MEASURE(0.01),#252,
'DISTANCE_ACCURACY_VALUE',
'Maximum model space distance between geometric entities at asserted c
onnectivities');
#250=(
GEOMETRIC_REPRESENTATION_CONTEXT(3)
GLOBAL_UNCERTAINTY_ASSIGNED_CONTEXT((#248))
GLOBAL_UNIT_ASSIGNED_CONTEXT((#252,#254,#255))
REPRESENTATION_CONTEXT('','3D')
);
#251=(
GEOMETRIC_REPRESENTATION_CONTEXT(3)
GLOBAL_UNCERTAINTY_ASSIGNED_CONTEXT((#249))
GLOBAL_UNIT_ASSIGNED_CONTEXT((#252,#254,#255))
REPRESENTATION_CONTEXT('','3D')
);
#252=(
LENGTH_UNIT()
NAMED_UNIT(*)
SI_UNIT(.MILLI.,.METRE.)
);
#253=(
LENGTH_UNIT()
NAMED_UNIT(*)
SI_UNIT(.CENTI.,.METRE.)
);
#254=(
NAMED_UNIT(*)
PLANE_ANGLE_UNIT()
SI_UNIT($,.RADIAN.)
);
#255=(
NAMED_UNIT(*)
SI_UNIT($,.STERADIAN.)
SOLID_ANGLE_UNIT()
);
#256=SHAPE_DEFINITION_REPRESENTATION(#257,#258);
#257=PRODUCT_DEFINITION_SHAPE('',$,#260);
#258=SHAPE_REPRESENTATION('',(#150),#250);
#259=PRODUCT_DEFINITION_CONTEXT('part definition',#264,'design');
#260=PRODUCT_DEFINITION('T-13 03\X\D702','T-13 03\X\D702',#261,#259);
#261=PRODUCT_DEFINITION_FORMATION('',$,#266);
#262=PRODUCT_RELATED_PRODUCT_CATEGORY('T-13 03\X\D702','T-13 03\X\D702',
(#266));
#263=APPLICATION_PROTOCOL_DEFINITION('international standard',
'automotive_design',2009,#264);
#264=APPLICATION_CONTEXT(
'Core Data for Automotive Mechanical Design Process');
#265=PRODUCT_CONTEXT('part definition',#264,'mechanical');
#266=PRODUCT('T-13 03\X\D702','T-13 03\X\D702',$,(#265));
#267=PRESENTATION_STYLE_ASSIGNMENT((#268));
#268=SURFACE_STYLE_USAGE(.BOTH.,#271);
#269=SURFACE_STYLE_RENDERING_WITH_PROPERTIES($,#275,(#270));
#270=SURFACE_STYLE_TRANSPARENT(0.);
#271=SURFACE_SIDE_STYLE('',(#272,#269));
#272=SURFACE_STYLE_FILL_AREA(#273);
#273=FILL_AREA_STYLE('',(#274));
#274=FILL_AREA_STYLE_COLOUR('',#275);
#275=COLOUR_RGB('',0.749019607843137,0.749019607843137,0.749019607843137);
ENDSEC;
END-ISO-10303-21;
