ISO-10303-21;
HEADER;
/* Generated by software containing ST-Developer
 * from STEP Tools, Inc. (www.steptools.com) 
 */

FILE_DESCRIPTION(
/* description */ (''),
/* implementation_level */ '2;1');

FILE_NAME(
/* name */ 
'\\\\Tske00\\w\\Work\\TOSTE\\\X2\7D99624B\X0\\\02_\X2\6EB663A5\X0\\\\X2\6EB663A5752830C130FC30BA\X0\\\
D8(R)\\D8(R) 50\X\D735.stp',
/* time_stamp */ '2022-04-12T17:50:44+09:00',
/* author */ ('3dcad-eng'),
/* organization */ (''),
/* preprocessor_version */ 'ST-DEVELOPER v18.1',
/* originating_system */ 'Autodesk Inventor 2022',
/* authorisation */ '');

FILE_SCHEMA (('AUTOMOTIVE_DESIGN { 1 0 10303 214 3 1 1 }'));
ENDSEC;

DATA;
#10=MECHANICAL_DESIGN_GEOMETRIC_PRESENTATION_REPRESENTATION('',(#13),#355);
#11=SHAPE_REPRESENTATION_RELATIONSHIP('SRR','None',#362,#12);
#12=ADVANCED_BREP_SHAPE_REPRESENTATION('',(#14),#354);
#13=STYLED_ITEM('',(#371),#14);
#14=MANIFOLD_SOLID_BREP('\X2\30BD30EA30C330C9\X0\1',#123);
#15=PLANE('',#150);
#16=PLANE('',#151);
#17=PLANE('',#155);
#18=FACE_BOUND('',#32,.T.);
#19=FACE_BOUND('',#35,.T.);
#20=FACE_BOUND('',#37,.T.);
#21=FACE_BOUND('',#39,.T.);
#22=FACE_BOUND('',#41,.T.);
#23=FACE_OUTER_BOUND('',#30,.T.);
#24=FACE_OUTER_BOUND('',#31,.T.);
#25=FACE_OUTER_BOUND('',#33,.T.);
#26=FACE_OUTER_BOUND('',#34,.T.);
#27=FACE_OUTER_BOUND('',#36,.T.);
#28=FACE_OUTER_BOUND('',#38,.T.);
#29=FACE_OUTER_BOUND('',#40,.T.);
#30=EDGE_LOOP('',(#84,#85,#86,#87,#88));
#31=EDGE_LOOP('',(#89,#90,#91,#92));
#32=EDGE_LOOP('',(#93,#94));
#33=EDGE_LOOP('',(#95,#96,#97,#98,#99));
#34=EDGE_LOOP('',(#100));
#35=EDGE_LOOP('',(#101));
#36=EDGE_LOOP('',(#102));
#37=EDGE_LOOP('',(#103));
#38=EDGE_LOOP('',(#104,#105,#106,#107));
#39=EDGE_LOOP('',(#108,#109));
#40=EDGE_LOOP('',(#110));
#41=EDGE_LOOP('',(#111));
#42=CIRCLE('',#144,42.55);
#43=CIRCLE('',#146,66.9);
#44=CIRCLE('',#147,66.9);
#45=CIRCLE('',#149,44.55);
#46=CIRCLE('',#152,69.9);
#47=CIRCLE('',#154,69.9);
#48=LINE('',#261,#52);
#49=LINE('',#267,#53);
#50=LINE('',#273,#54);
#51=LINE('',#350,#55);
#52=VECTOR('',#160,42.55);
#53=VECTOR('',#167,66.9);
#54=VECTOR('',#174,44.55);
#55=VECTOR('',#185,69.9);
#56=B_SPLINE_CURVE_WITH_KNOTS('',3,(#192,#193,#194,#195,#196,#197,#198,
#199,#200,#201,#202,#203,#204,#205,#206,#207,#208,#209,#210,#211,#212,#213,
#214,#215,#216,#217,#218,#219,#220,#221,#222,#223,#224,#225,#226,#227,#228,
#229,#230,#231,#232,#233,#234,#235,#236,#237,#238,#239,#240,#241),
 .UNSPECIFIED.,.F.,.F.,(4,2,2,2,2,2,2,2,2,2,2,2,2,2,2,2,2,2,2,2,2,2,2,2,
4),(0.,0.834434052485308,1.66886810497062,2.50330215745592,3.33773620994123,
4.16496735831156,4.9921985066819,5.81942965505223,6.64666080342256,7.4738919517929,
8.30112310016323,9.12835424853357,9.9555853969039,10.7900194493892,11.6244535018745,
12.4588875543598,13.2933216068451,14.1277556593304,14.9621897118157,15.7966237643011,
16.6310578167864,17.4582889651567,18.285520113527,19.1127512618974,19.9399824102677),
 .UNSPECIFIED.);
#57=B_SPLINE_CURVE_WITH_KNOTS('',3,(#242,#243,#244,#245,#246,#247,#248,
#249,#250,#251,#252,#253,#254,#255,#256,#257,#258,#259),.UNSPECIFIED.,.F.,
 .F.,(4,2,2,2,2,2,2,2,4),(19.9399824102677,20.767213558638,21.5944447070084,
22.4216758553787,23.248907003749,24.0833410562343,24.9177751087196,25.752209161205,
26.5866432136903),.UNSPECIFIED.);
#58=B_SPLINE_CURVE_WITH_KNOTS('',3,(#275,#276,#277,#278,#279,#280,#281,
#282,#283,#284,#285,#286,#287,#288,#289,#290,#291,#292),.UNSPECIFIED.,.F.,
 .F.,(4,2,2,2,2,2,2,2,4),(0.,0.873862245362824,1.74772449072565,2.62158673608847,
3.4954489814513,4.36168840816734,5.22792783488337,6.09416726159941,6.96040668831545),
 .UNSPECIFIED.);
#59=B_SPLINE_CURVE_WITH_KNOTS('',3,(#293,#294,#295,#296,#297,#298,#299,
#300,#301,#302,#303,#304,#305,#306,#307,#308,#309,#310,#311,#312,#313,#314,
#315,#316,#317,#318,#319,#320,#321,#322,#323,#324,#325,#326,#327,#328,#329,
#330,#331,#332,#333,#334,#335,#336,#337,#338,#339,#340,#341,#342),
 .UNSPECIFIED.,.F.,.F.,(4,2,2,2,2,2,2,2,2,2,2,2,2,2,2,2,2,2,2,2,2,2,2,2,
4),(6.96040668831545,7.82664611503149,8.69288554174753,9.55912496846357,
10.4253643951796,11.2992266405424,12.1730888859053,13.0469511312681,13.9208133766309,
14.7946756219937,15.6685378673566,16.5424001127194,17.4162623580822,18.2825017847982,
19.1487412115143,20.0149806382303,20.8812200649464,21.7474594916624,22.6136989183784,
23.4799383450945,24.3461777718105,25.2200400171733,26.0939022625362,26.967764507899,
27.8416267532618),.UNSPECIFIED.);
#60=VERTEX_POINT('',#190);
#61=VERTEX_POINT('',#191);
#62=VERTEX_POINT('',#260);
#63=VERTEX_POINT('',#264);
#64=VERTEX_POINT('',#266);
#65=VERTEX_POINT('',#270);
#66=VERTEX_POINT('',#272);
#67=VERTEX_POINT('',#274);
#68=VERTEX_POINT('',#345);
#69=VERTEX_POINT('',#348);
#70=EDGE_CURVE('',#60,#61,#56,.T.);
#71=EDGE_CURVE('',#61,#60,#57,.T.);
#72=EDGE_CURVE('',#61,#62,#48,.T.);
#73=EDGE_CURVE('',#62,#62,#42,.T.);
#74=EDGE_CURVE('',#63,#63,#43,.T.);
#75=EDGE_CURVE('',#63,#64,#49,.T.);
#76=EDGE_CURVE('',#64,#64,#44,.T.);
#77=EDGE_CURVE('',#65,#65,#45,.T.);
#78=EDGE_CURVE('',#65,#66,#50,.T.);
#79=EDGE_CURVE('',#67,#66,#58,.T.);
#80=EDGE_CURVE('',#66,#67,#59,.T.);
#81=EDGE_CURVE('',#68,#68,#46,.T.);
#82=EDGE_CURVE('',#69,#69,#47,.T.);
#83=EDGE_CURVE('',#69,#68,#51,.T.);
#84=ORIENTED_EDGE('',*,*,#70,.F.);
#85=ORIENTED_EDGE('',*,*,#71,.F.);
#86=ORIENTED_EDGE('',*,*,#72,.T.);
#87=ORIENTED_EDGE('',*,*,#73,.F.);
#88=ORIENTED_EDGE('',*,*,#72,.F.);
#89=ORIENTED_EDGE('',*,*,#74,.F.);
#90=ORIENTED_EDGE('',*,*,#75,.T.);
#91=ORIENTED_EDGE('',*,*,#76,.F.);
#92=ORIENTED_EDGE('',*,*,#75,.F.);
#93=ORIENTED_EDGE('',*,*,#70,.T.);
#94=ORIENTED_EDGE('',*,*,#71,.T.);
#95=ORIENTED_EDGE('',*,*,#77,.F.);
#96=ORIENTED_EDGE('',*,*,#78,.T.);
#97=ORIENTED_EDGE('',*,*,#79,.F.);
#98=ORIENTED_EDGE('',*,*,#80,.F.);
#99=ORIENTED_EDGE('',*,*,#78,.F.);
#100=ORIENTED_EDGE('',*,*,#77,.T.);
#101=ORIENTED_EDGE('',*,*,#73,.T.);
#102=ORIENTED_EDGE('',*,*,#81,.T.);
#103=ORIENTED_EDGE('',*,*,#74,.T.);
#104=ORIENTED_EDGE('',*,*,#82,.F.);
#105=ORIENTED_EDGE('',*,*,#83,.T.);
#106=ORIENTED_EDGE('',*,*,#81,.F.);
#107=ORIENTED_EDGE('',*,*,#83,.F.);
#108=ORIENTED_EDGE('',*,*,#79,.T.);
#109=ORIENTED_EDGE('',*,*,#80,.T.);
#110=ORIENTED_EDGE('',*,*,#82,.T.);
#111=ORIENTED_EDGE('',*,*,#76,.T.);
#112=CYLINDRICAL_SURFACE('',#143,42.55);
#113=CYLINDRICAL_SURFACE('',#145,66.9);
#114=CYLINDRICAL_SURFACE('',#148,44.55);
#115=CYLINDRICAL_SURFACE('',#153,69.9);
#116=ADVANCED_FACE('',(#23),#112,.F.);
#117=ADVANCED_FACE('',(#24,#18),#113,.F.);
#118=ADVANCED_FACE('',(#25),#114,.T.);
#119=ADVANCED_FACE('',(#26,#19),#15,.T.);
#120=ADVANCED_FACE('',(#27,#20),#16,.F.);
#121=ADVANCED_FACE('',(#28,#21),#115,.T.);
#122=ADVANCED_FACE('',(#29,#22),#17,.T.);
#123=CLOSED_SHELL('',(#116,#117,#118,#119,#120,#121,#122));
#124=DERIVED_UNIT_ELEMENT(#126,1.);
#125=DERIVED_UNIT_ELEMENT(#357,-3.);
#126=(
MASS_UNIT()
NAMED_UNIT(*)
SI_UNIT($,.GRAM.)
);
#127=DERIVED_UNIT((#124,#125));
#128=MEASURE_REPRESENTATION_ITEM('density measure',
POSITIVE_RATIO_MEASURE(1.),#127);
#129=PROPERTY_DEFINITION_REPRESENTATION(#134,#131);
#130=PROPERTY_DEFINITION_REPRESENTATION(#135,#132);
#131=REPRESENTATION('material name',(#133),#354);
#132=REPRESENTATION('density',(#128),#354);
#133=DESCRIPTIVE_REPRESENTATION_ITEM('\X2\4E00822C\X0\','\X2\4E00822C\X0\');
#134=PROPERTY_DEFINITION('material property','material name',#364);
#135=PROPERTY_DEFINITION('material property','density of part',#364);
#136=DATE_TIME_ROLE('creation_date');
#137=APPLIED_DATE_AND_TIME_ASSIGNMENT(#138,#136,(#364));
#138=DATE_AND_TIME(#139,#140);
#139=CALENDAR_DATE(2022,31,3);
#140=LOCAL_TIME(0,0,0.,#141);
#141=COORDINATED_UNIVERSAL_TIME_OFFSET(0,0,.BEHIND.);
#142=AXIS2_PLACEMENT_3D('placement',#188,#156,#157);
#143=AXIS2_PLACEMENT_3D('',#189,#158,#159);
#144=AXIS2_PLACEMENT_3D('',#262,#161,#162);
#145=AXIS2_PLACEMENT_3D('',#263,#163,#164);
#146=AXIS2_PLACEMENT_3D('',#265,#165,#166);
#147=AXIS2_PLACEMENT_3D('',#268,#168,#169);
#148=AXIS2_PLACEMENT_3D('',#269,#170,#171);
#149=AXIS2_PLACEMENT_3D('',#271,#172,#173);
#150=AXIS2_PLACEMENT_3D('',#343,#175,#176);
#151=AXIS2_PLACEMENT_3D('',#344,#177,#178);
#152=AXIS2_PLACEMENT_3D('',#346,#179,#180);
#153=AXIS2_PLACEMENT_3D('',#347,#181,#182);
#154=AXIS2_PLACEMENT_3D('',#349,#183,#184);
#155=AXIS2_PLACEMENT_3D('',#351,#186,#187);
#156=DIRECTION('axis',(0.,0.,1.));
#157=DIRECTION('refdir',(1.,0.,0.));
#158=DIRECTION('center_axis',(0.,0.,1.));
#159=DIRECTION('ref_axis',(1.,0.,0.));
#160=DIRECTION('',(0.,0.,1.));
#161=DIRECTION('center_axis',(0.,0.,-1.));
#162=DIRECTION('ref_axis',(1.,0.,0.));
#163=DIRECTION('center_axis',(1.,0.,0.));
#164=DIRECTION('ref_axis',(0.,1.,0.));
#165=DIRECTION('center_axis',(1.,0.,0.));
#166=DIRECTION('ref_axis',(0.,1.,0.));
#167=DIRECTION('',(1.,0.,0.));
#168=DIRECTION('center_axis',(-1.,0.,0.));
#169=DIRECTION('ref_axis',(0.,1.,0.));
#170=DIRECTION('center_axis',(0.,0.,1.));
#171=DIRECTION('ref_axis',(1.,0.,0.));
#172=DIRECTION('center_axis',(0.,0.,1.));
#173=DIRECTION('ref_axis',(1.,0.,0.));
#174=DIRECTION('',(0.,0.,-1.));
#175=DIRECTION('center_axis',(0.,0.,1.));
#176=DIRECTION('ref_axis',(1.,0.,0.));
#177=DIRECTION('center_axis',(1.,0.,0.));
#178=DIRECTION('ref_axis',(0.,0.,-1.));
#179=DIRECTION('center_axis',(-1.,0.,0.));
#180=DIRECTION('ref_axis',(0.,1.,0.));
#181=DIRECTION('center_axis',(1.,0.,0.));
#182=DIRECTION('ref_axis',(0.,1.,0.));
#183=DIRECTION('center_axis',(1.,0.,0.));
#184=DIRECTION('ref_axis',(0.,1.,0.));
#185=DIRECTION('',(-1.,0.,0.));
#186=DIRECTION('center_axis',(1.,0.,0.));
#187=DIRECTION('ref_axis',(0.,0.,-1.));
#188=CARTESIAN_POINT('',(0.,0.,0.));
#189=CARTESIAN_POINT('Origin',(0.,0.,0.));
#190=CARTESIAN_POINT('',(-1.66533453693773E-15,-42.55,51.6246791757586));
#191=CARTESIAN_POINT('',(-42.55,-6.6254577209197E-16,66.9));
#192=CARTESIAN_POINT('Ctrl Pts',(-1.66533453693773E-15,-42.55,51.6246791757586));
#193=CARTESIAN_POINT('Ctrl Pts',(2.78144684161769,-42.55,51.6246791757586));
#194=CARTESIAN_POINT('Ctrl Pts',(5.61440356072431,-42.2733780900535,51.8563874190549));
#195=CARTESIAN_POINT('Ctrl Pts',(11.1799097529243,-41.1530028713847,52.7499171695167));
#196=CARTESIAN_POINT('Ctrl Pts',(13.9129856771622,-40.3098864100799,53.4092561959385));
#197=CARTESIAN_POINT('Ctrl Pts',(19.1121139813283,-38.1206739127744,54.9931755455649));
#198=CARTESIAN_POINT('Ctrl Pts',(21.5836632021854,-36.7727597216191,55.9166940533001));
#199=CARTESIAN_POINT('Ctrl Pts',(26.1448350146915,-33.6829033436135,57.830567636986));
#200=CARTESIAN_POINT('Ctrl Pts',(28.2345552302026,-31.9402318487726,58.8195122912375));
#201=CARTESIAN_POINT('Ctrl Pts',(31.9242379944439,-28.2505490845313,60.6773923184652));
#202=CARTESIAN_POINT('Ctrl Pts',(33.6641073778375,-26.1692711515739,61.6177307780186));
#203=CARTESIAN_POINT('Ctrl Pts',(36.7595658647608,-21.6064156254861,63.3619625844644));
#204=CARTESIAN_POINT('Ctrl Pts',(38.1153597920542,-19.1245731920892,64.1647994442605));
#205=CARTESIAN_POINT('Ctrl Pts',(40.3145146739991,-13.9021552447273,65.4950447973581));
#206=CARTESIAN_POINT('Ctrl Pts',(41.1596678910778,-11.1561328911203,66.0230015950153));
#207=CARTESIAN_POINT('Ctrl Pts',(42.2776329392797,-5.5838441143726,66.7256826540407));
#208=CARTESIAN_POINT('Ctrl Pts',(42.55,-2.75743716123445,66.9));
#209=CARTESIAN_POINT('Ctrl Pts',(42.55,2.75743716123444,66.9));
#210=CARTESIAN_POINT('Ctrl Pts',(42.2776329392797,5.58384411437259,66.7256826540407));
#211=CARTESIAN_POINT('Ctrl Pts',(41.1596678910778,11.1561328911202,66.0230015950153));
#212=CARTESIAN_POINT('Ctrl Pts',(40.3145146739991,13.9021552447273,65.4950447973582));
#213=CARTESIAN_POINT('Ctrl Pts',(38.1153597920542,19.1245731920892,64.1647994442605));
#214=CARTESIAN_POINT('Ctrl Pts',(36.7595658647608,21.6064156254861,63.3619625844644));
#215=CARTESIAN_POINT('Ctrl Pts',(33.6641073778375,26.1692711515738,61.6177307780186));
#216=CARTESIAN_POINT('Ctrl Pts',(31.9242379944439,28.2505490845313,60.6773923184652));
#217=CARTESIAN_POINT('Ctrl Pts',(28.2345552302026,31.9402318487726,58.8195122912375));
#218=CARTESIAN_POINT('Ctrl Pts',(26.1448350146915,33.6829033436135,57.830567636986));
#219=CARTESIAN_POINT('Ctrl Pts',(21.5836632021854,36.7727597216191,55.9166940533001));
#220=CARTESIAN_POINT('Ctrl Pts',(19.1121139813283,38.1206739127744,54.9931755455649));
#221=CARTESIAN_POINT('Ctrl Pts',(13.9129856771622,40.3098864100799,53.4092561959385));
#222=CARTESIAN_POINT('Ctrl Pts',(11.1799097529243,41.1530028713847,52.7499171695167));
#223=CARTESIAN_POINT('Ctrl Pts',(5.61440356072431,42.2733780900535,51.8563874190549));
#224=CARTESIAN_POINT('Ctrl Pts',(2.78144684161769,42.55,51.6246791757586));
#225=CARTESIAN_POINT('Ctrl Pts',(-2.78144684161769,42.55,51.6246791757586));
#226=CARTESIAN_POINT('Ctrl Pts',(-5.61440356072431,42.2733780900535,51.8563874190549));
#227=CARTESIAN_POINT('Ctrl Pts',(-11.1799097529243,41.1530028713847,52.7499171695167));
#228=CARTESIAN_POINT('Ctrl Pts',(-13.9129856771622,40.3098864100799,53.4092561959385));
#229=CARTESIAN_POINT('Ctrl Pts',(-19.1121139813283,38.1206739127744,54.9931755455649));
#230=CARTESIAN_POINT('Ctrl Pts',(-21.5836632021854,36.7727597216191,55.9166940533001));
#231=CARTESIAN_POINT('Ctrl Pts',(-26.1448350146915,33.6829033436135,57.830567636986));
#232=CARTESIAN_POINT('Ctrl Pts',(-28.2345552302026,31.9402318487726,58.8195122912375));
#233=CARTESIAN_POINT('Ctrl Pts',(-31.9242379944439,28.2505490845313,60.6773923184653));
#234=CARTESIAN_POINT('Ctrl Pts',(-33.6641073778375,26.1692711515738,61.6177307780186));
#235=CARTESIAN_POINT('Ctrl Pts',(-36.7595658647608,21.6064156254861,63.3619625844644));
#236=CARTESIAN_POINT('Ctrl Pts',(-38.1153597920542,19.1245731920892,64.1647994442605));
#237=CARTESIAN_POINT('Ctrl Pts',(-40.3145146739992,13.9021552447273,65.4950447973582));
#238=CARTESIAN_POINT('Ctrl Pts',(-41.1596678910778,11.1561328911203,66.0230015950153));
#239=CARTESIAN_POINT('Ctrl Pts',(-42.2776329392797,5.5838441143726,66.7256826540407));
#240=CARTESIAN_POINT('Ctrl Pts',(-42.55,2.75743716123445,66.9));
#241=CARTESIAN_POINT('Ctrl Pts',(-42.55,4.44089209850063E-15,66.9));
#242=CARTESIAN_POINT('Ctrl Pts',(-42.55,6.66133814775094E-15,66.9));
#243=CARTESIAN_POINT('Ctrl Pts',(-42.55,-2.75743716123444,66.9));
#244=CARTESIAN_POINT('Ctrl Pts',(-42.2776329392797,-5.58384411437259,66.7256826540407));
#245=CARTESIAN_POINT('Ctrl Pts',(-41.1596678910778,-11.1561328911202,66.0230015950153));
#246=CARTESIAN_POINT('Ctrl Pts',(-40.3145146739992,-13.9021552447273,65.4950447973582));
#247=CARTESIAN_POINT('Ctrl Pts',(-38.1153597920542,-19.1245731920892,64.1647994442605));
#248=CARTESIAN_POINT('Ctrl Pts',(-36.7595658647608,-21.6064156254861,63.3619625844644));
#249=CARTESIAN_POINT('Ctrl Pts',(-33.6641073778375,-26.1692711515738,61.6177307780186));
#250=CARTESIAN_POINT('Ctrl Pts',(-31.924237994444,-28.2505490845312,60.6773923184653));
#251=CARTESIAN_POINT('Ctrl Pts',(-28.2345552302026,-31.9402318487726,58.8195122912375));
#252=CARTESIAN_POINT('Ctrl Pts',(-26.1448350146915,-33.6829033436135,57.830567636986));
#253=CARTESIAN_POINT('Ctrl Pts',(-21.5836632021854,-36.7727597216191,55.9166940533001));
#254=CARTESIAN_POINT('Ctrl Pts',(-19.1121139813283,-38.1206739127744,54.9931755455649));
#255=CARTESIAN_POINT('Ctrl Pts',(-13.9129856771622,-40.3098864100799,53.4092561959385));
#256=CARTESIAN_POINT('Ctrl Pts',(-11.1799097529243,-41.1530028713846,52.7499171695167));
#257=CARTESIAN_POINT('Ctrl Pts',(-5.6144035607243,-42.2733780900535,51.8563874190549));
#258=CARTESIAN_POINT('Ctrl Pts',(-2.78144684161769,-42.55,51.6246791757586));
#259=CARTESIAN_POINT('Ctrl Pts',(-1.11022302462516E-15,-42.55,51.6246791757586));
#260=CARTESIAN_POINT('',(-42.55,5.21087213037199E-15,145.));
#261=CARTESIAN_POINT('',(-42.55,-5.21087213037199E-15,0.));
#262=CARTESIAN_POINT('Origin',(0.,0.,145.));
#263=CARTESIAN_POINT('Origin',(0.,0.,0.));
#264=CARTESIAN_POINT('',(-145.,-66.9,-8.19288708629579E-15));
#265=CARTESIAN_POINT('Origin',(-145.,0.,0.));
#266=CARTESIAN_POINT('',(145.,-66.9,8.19288708629579E-15));
#267=CARTESIAN_POINT('',(0.,-66.9,-8.19288708629579E-15));
#268=CARTESIAN_POINT('Origin',(145.,0.,0.));
#269=CARTESIAN_POINT('Origin',(0.,0.,0.));
#270=CARTESIAN_POINT('',(-44.55,-5.45580149020146E-15,145.));
#271=CARTESIAN_POINT('Origin',(0.,0.,145.));
#272=CARTESIAN_POINT('',(-44.55,-5.22590255050733E-15,69.9));
#273=CARTESIAN_POINT('',(-44.55,-5.45580149020146E-15,0.));
#274=CARTESIAN_POINT('',(1.11022302462516E-15,-44.55,53.8637865360392));
#275=CARTESIAN_POINT('Ctrl Pts',(1.11022302462516E-15,-44.55,53.8637865360392));
#276=CARTESIAN_POINT('Ctrl Pts',(-2.91287415120941,-44.55,53.8637865360392));
#277=CARTESIAN_POINT('Ctrl Pts',(-5.87935900400511,-44.2602460599485,54.1073481662326));
#278=CARTESIAN_POINT('Ctrl Pts',(-11.7067465248123,-43.0869856782658,55.0462184620307));
#279=CARTESIAN_POINT('Ctrl Pts',(-14.5682059700962,-42.2041479294513,55.7389049183336));
#280=CARTESIAN_POINT('Ctrl Pts',(-20.0113865424328,-39.912000188191,57.4025031441097));
#281=CARTESIAN_POINT('Ctrl Pts',(-22.598865290366,-38.5007850449479,58.3722978184418));
#282=CARTESIAN_POINT('Ctrl Pts',(-27.3740148790647,-35.2658825466664,60.3817284393163));
#283=CARTESIAN_POINT('Ctrl Pts',(-29.5617863572,-33.4414278465214,61.4198895707675));
#284=CARTESIAN_POINT('Ctrl Pts',(-33.4245065276038,-29.5787076761176,63.3699452637036));
#285=CARTESIAN_POINT('Ctrl Pts',(-35.2459898511136,-27.3998748475736,64.3568117095416));
#286=CARTESIAN_POINT('Ctrl Pts',(-38.4868080841034,-22.6229650222745,66.1872631899173));
#287=CARTESIAN_POINT('Ctrl Pts',(-39.9063567451939,-20.0246094740487,67.0297426601809));
#288=CARTESIAN_POINT('Ctrl Pts',(-42.2090289053213,-14.556793612976,68.4256616636509));
#289=CARTESIAN_POINT('Ctrl Pts',(-43.0940295799581,-11.681625410162,68.9796794216826));
#290=CARTESIAN_POINT('Ctrl Pts',(-44.2647483062042,-5.8470347279137,69.7170619739386));
#291=CARTESIAN_POINT('Ctrl Pts',(-44.55,-2.88746475572014,69.9));
#292=CARTESIAN_POINT('Ctrl Pts',(-44.55,-3.88578058618805E-15,69.9));
#293=CARTESIAN_POINT('Ctrl Pts',(-44.55,-4.9960036108132E-15,69.9));
#294=CARTESIAN_POINT('Ctrl Pts',(-44.55,2.88746475572013,69.9));
#295=CARTESIAN_POINT('Ctrl Pts',(-44.2647483062042,5.8470347279137,69.7170619739386));
#296=CARTESIAN_POINT('Ctrl Pts',(-43.0940295799581,11.681625410162,68.9796794216826));
#297=CARTESIAN_POINT('Ctrl Pts',(-42.2090289053213,14.5567936129759,68.4256616636509));
#298=CARTESIAN_POINT('Ctrl Pts',(-39.9063567451939,20.0246094740487,67.0297426601809));
#299=CARTESIAN_POINT('Ctrl Pts',(-38.4868080841034,22.6229650222745,66.1872631899173));
#300=CARTESIAN_POINT('Ctrl Pts',(-35.2459898511136,27.3998748475736,64.3568117095416));
#301=CARTESIAN_POINT('Ctrl Pts',(-33.4245065276038,29.5787076761176,63.3699452637036));
#302=CARTESIAN_POINT('Ctrl Pts',(-29.5617863572,33.4414278465214,61.4198895707675));
#303=CARTESIAN_POINT('Ctrl Pts',(-27.3740148790647,35.2658825466664,60.3817284393163));
#304=CARTESIAN_POINT('Ctrl Pts',(-22.598865290366,38.5007850449479,58.3722978184418));
#305=CARTESIAN_POINT('Ctrl Pts',(-20.0113865424328,39.912000188191,57.4025031441097));
#306=CARTESIAN_POINT('Ctrl Pts',(-14.5682059700962,42.2041479294513,55.7389049183336));
#307=CARTESIAN_POINT('Ctrl Pts',(-11.7067465248123,43.0869856782658,55.0462184620307));
#308=CARTESIAN_POINT('Ctrl Pts',(-5.87935900400511,44.2602460599485,54.1073481662326));
#309=CARTESIAN_POINT('Ctrl Pts',(-2.91287415120941,44.55,53.8637865360392));
#310=CARTESIAN_POINT('Ctrl Pts',(2.91287415120941,44.55,53.8637865360392));
#311=CARTESIAN_POINT('Ctrl Pts',(5.8793590040051,44.2602460599485,54.1073481662326));
#312=CARTESIAN_POINT('Ctrl Pts',(11.7067465248123,43.0869856782658,55.0462184620307));
#313=CARTESIAN_POINT('Ctrl Pts',(14.5682059700962,42.2041479294513,55.7389049183336));
#314=CARTESIAN_POINT('Ctrl Pts',(20.0113865424328,39.912000188191,57.4025031441097));
#315=CARTESIAN_POINT('Ctrl Pts',(22.598865290366,38.5007850449479,58.3722978184418));
#316=CARTESIAN_POINT('Ctrl Pts',(27.3740148790647,35.2658825466664,60.3817284393163));
#317=CARTESIAN_POINT('Ctrl Pts',(29.5617863572,33.4414278465214,61.4198895707675));
#318=CARTESIAN_POINT('Ctrl Pts',(33.4245065276038,29.5787076761176,63.3699452637036));
#319=CARTESIAN_POINT('Ctrl Pts',(35.2459898511136,27.3998748475736,64.3568117095416));
#320=CARTESIAN_POINT('Ctrl Pts',(38.4868080841034,22.6229650222745,66.1872631899173));
#321=CARTESIAN_POINT('Ctrl Pts',(39.9063567451939,20.0246094740487,67.0297426601809));
#322=CARTESIAN_POINT('Ctrl Pts',(42.2090289053213,14.556793612976,68.4256616636509));
#323=CARTESIAN_POINT('Ctrl Pts',(43.0940295799581,11.681625410162,68.9796794216826));
#324=CARTESIAN_POINT('Ctrl Pts',(44.2647483062041,5.8470347279137,69.7170619739386));
#325=CARTESIAN_POINT('Ctrl Pts',(44.55,2.88746475572014,69.9));
#326=CARTESIAN_POINT('Ctrl Pts',(44.55,-2.88746475572012,69.9));
#327=CARTESIAN_POINT('Ctrl Pts',(44.2647483062042,-5.84703472791368,69.7170619739386));
#328=CARTESIAN_POINT('Ctrl Pts',(43.0940295799581,-11.681625410162,68.9796794216826));
#329=CARTESIAN_POINT('Ctrl Pts',(42.2090289053213,-14.5567936129759,68.4256616636509));
#330=CARTESIAN_POINT('Ctrl Pts',(39.906356745194,-20.0246094740487,67.0297426601809));
#331=CARTESIAN_POINT('Ctrl Pts',(38.4868080841034,-22.6229650222745,66.1872631899173));
#332=CARTESIAN_POINT('Ctrl Pts',(35.2459898511136,-27.3998748475736,64.3568117095416));
#333=CARTESIAN_POINT('Ctrl Pts',(33.4245065276038,-29.5787076761176,63.3699452637036));
#334=CARTESIAN_POINT('Ctrl Pts',(29.5617863572,-33.4414278465214,61.4198895707675));
#335=CARTESIAN_POINT('Ctrl Pts',(27.3740148790647,-35.2658825466664,60.3817284393163));
#336=CARTESIAN_POINT('Ctrl Pts',(22.598865290366,-38.5007850449479,58.3722978184418));
#337=CARTESIAN_POINT('Ctrl Pts',(20.0113865424328,-39.912000188191,57.4025031441097));
#338=CARTESIAN_POINT('Ctrl Pts',(14.5682059700962,-42.2041479294513,55.7389049183336));
#339=CARTESIAN_POINT('Ctrl Pts',(11.7067465248123,-43.0869856782657,55.0462184620307));
#340=CARTESIAN_POINT('Ctrl Pts',(5.87935900400512,-44.2602460599485,54.1073481662326));
#341=CARTESIAN_POINT('Ctrl Pts',(2.91287415120942,-44.55,53.8637865360392));
#342=CARTESIAN_POINT('Ctrl Pts',(-5.55111512312578E-16,-44.55,53.8637865360392));
#343=CARTESIAN_POINT('Origin',(0.,0.,145.));
#344=CARTESIAN_POINT('Origin',(-145.,0.,0.));
#345=CARTESIAN_POINT('',(-145.,-69.9,-8.56028112604E-15));
#346=CARTESIAN_POINT('Origin',(-145.,0.,0.));
#347=CARTESIAN_POINT('Origin',(0.,0.,0.));
#348=CARTESIAN_POINT('',(145.,-69.9,-8.56028112604E-15));
#349=CARTESIAN_POINT('Origin',(145.,0.,0.));
#350=CARTESIAN_POINT('',(0.,-69.9,-8.56028112604E-15));
#351=CARTESIAN_POINT('Origin',(145.,0.,0.));
#352=UNCERTAINTY_MEASURE_WITH_UNIT(LENGTH_MEASURE(0.01),#356,
'DISTANCE_ACCURACY_VALUE',
'Maximum model space distance between geometric entities at asserted c
onnectivities');
#353=UNCERTAINTY_MEASURE_WITH_UNIT(LENGTH_MEASURE(0.01),#356,
'DISTANCE_ACCURACY_VALUE',
'Maximum model space distance between geometric entities at asserted c
onnectivities');
#354=(
GEOMETRIC_REPRESENTATION_CONTEXT(3)
GLOBAL_UNCERTAINTY_ASSIGNED_CONTEXT((#352))
GLOBAL_UNIT_ASSIGNED_CONTEXT((#356,#358,#359))
REPRESENTATION_CONTEXT('','3D')
);
#355=(
GEOMETRIC_REPRESENTATION_CONTEXT(3)
GLOBAL_UNCERTAINTY_ASSIGNED_CONTEXT((#353))
GLOBAL_UNIT_ASSIGNED_CONTEXT((#356,#358,#359))
REPRESENTATION_CONTEXT('','3D')
);
#356=(
LENGTH_UNIT()
NAMED_UNIT(*)
SI_UNIT(.MILLI.,.METRE.)
);
#357=(
LENGTH_UNIT()
NAMED_UNIT(*)
SI_UNIT(.CENTI.,.METRE.)
);
#358=(
NAMED_UNIT(*)
PLANE_ANGLE_UNIT()
SI_UNIT($,.RADIAN.)
);
#359=(
NAMED_UNIT(*)
SI_UNIT($,.STERADIAN.)
SOLID_ANGLE_UNIT()
);
#360=SHAPE_DEFINITION_REPRESENTATION(#361,#362);
#361=PRODUCT_DEFINITION_SHAPE('',$,#364);
#362=SHAPE_REPRESENTATION('',(#142),#354);
#363=PRODUCT_DEFINITION_CONTEXT('part definition',#368,'design');
#364=PRODUCT_DEFINITION('D8(R) 50\X\D735','D8(R) 50\X\D735',#365,#363);
#365=PRODUCT_DEFINITION_FORMATION('',$,#370);
#366=PRODUCT_RELATED_PRODUCT_CATEGORY('D8(R) 50\X\D735','D8(R) 50\X\D7
35',(#370));
#367=APPLICATION_PROTOCOL_DEFINITION('international standard',
'automotive_design',2009,#368);
#368=APPLICATION_CONTEXT(
'Core Data for Automotive Mechanical Design Process');
#369=PRODUCT_CONTEXT('part definition',#368,'mechanical');
#370=PRODUCT('D8(R) 50\X\D735','D8(R) 50\X\D735',$,(#369));
#371=PRESENTATION_STYLE_ASSIGNMENT((#372));
#372=SURFACE_STYLE_USAGE(.BOTH.,#375);
#373=SURFACE_STYLE_RENDERING_WITH_PROPERTIES($,#379,(#374));
#374=SURFACE_STYLE_TRANSPARENT(0.);
#375=SURFACE_SIDE_STYLE('',(#376,#373));
#376=SURFACE_STYLE_FILL_AREA(#377);
#377=FILL_AREA_STYLE('',(#378));
#378=FILL_AREA_STYLE_COLOUR('',#379);
#379=COLOUR_RGB('',0.749019607843137,0.749019607843137,0.749019607843137);
ENDSEC;
END-ISO-10303-21;
