ISO-10303-21;
HEADER;
/* Generated by software containing ST-Developer
 * from STEP Tools, Inc. (www.steptools.com) 
 */

FILE_DESCRIPTION(
/* description */ (''),
/* implementation_level */ '2;1');

FILE_NAME(
/* name */ 
'\\\\Tske00\\w\\Work\\TOSTE\\\X2\7D99624B\X0\\\02_\X2\6EB663A5\X0\\\\X2\6EB663A5752830C130FC30BA\X0\\\
D8(R)\\D8(R) 45\X\D720.stp',
/* time_stamp */ '2022-04-12T17:38:58+09:00',
/* author */ ('3dcad-eng'),
/* organization */ (''),
/* preprocessor_version */ 'ST-DEVELOPER v18.1',
/* originating_system */ 'Autodesk Inventor 2022',
/* authorisation */ '');

FILE_SCHEMA (('AUTOMOTIVE_DESIGN { 1 0 10303 214 3 1 1 }'));
ENDSEC;

DATA;
#10=MECHANICAL_DESIGN_GEOMETRIC_PRESENTATION_REPRESENTATION('',(#13),#355);
#11=SHAPE_REPRESENTATION_RELATIONSHIP('SRR','None',#362,#12);
#12=ADVANCED_BREP_SHAPE_REPRESENTATION('',(#14),#354);
#13=STYLED_ITEM('',(#371),#14);
#14=MANIFOLD_SOLID_BREP('\X2\30BD30EA30C330C9\X0\1',#123);
#15=PLANE('',#150);
#16=PLANE('',#151);
#17=PLANE('',#155);
#18=FACE_BOUND('',#32,.T.);
#19=FACE_BOUND('',#35,.T.);
#20=FACE_BOUND('',#37,.T.);
#21=FACE_BOUND('',#39,.T.);
#22=FACE_BOUND('',#41,.T.);
#23=FACE_OUTER_BOUND('',#30,.T.);
#24=FACE_OUTER_BOUND('',#31,.T.);
#25=FACE_OUTER_BOUND('',#33,.T.);
#26=FACE_OUTER_BOUND('',#34,.T.);
#27=FACE_OUTER_BOUND('',#36,.T.);
#28=FACE_OUTER_BOUND('',#38,.T.);
#29=FACE_OUTER_BOUND('',#40,.T.);
#30=EDGE_LOOP('',(#84,#85,#86,#87,#88));
#31=EDGE_LOOP('',(#89,#90,#91,#92));
#32=EDGE_LOOP('',(#93,#94));
#33=EDGE_LOOP('',(#95,#96,#97,#98,#99));
#34=EDGE_LOOP('',(#100));
#35=EDGE_LOOP('',(#101));
#36=EDGE_LOOP('',(#102));
#37=EDGE_LOOP('',(#103));
#38=EDGE_LOOP('',(#104,#105,#106,#107));
#39=EDGE_LOOP('',(#108,#109));
#40=EDGE_LOOP('',(#110));
#41=EDGE_LOOP('',(#111));
#42=CIRCLE('',#144,23.9);
#43=CIRCLE('',#146,54.15);
#44=CIRCLE('',#147,54.15);
#45=CIRCLE('',#149,25.4);
#46=CIRCLE('',#152,57.15);
#47=CIRCLE('',#154,57.15);
#48=LINE('',#261,#52);
#49=LINE('',#267,#53);
#50=LINE('',#273,#54);
#51=LINE('',#350,#55);
#52=VECTOR('',#160,23.9);
#53=VECTOR('',#167,54.15);
#54=VECTOR('',#174,25.4);
#55=VECTOR('',#185,57.15);
#56=B_SPLINE_CURVE_WITH_KNOTS('',3,(#192,#193,#194,#195,#196,#197,#198,
#199,#200,#201,#202,#203,#204,#205,#206,#207,#208,#209,#210,#211,#212,#213,
#214,#215,#216,#217,#218,#219,#220,#221,#222,#223,#224,#225,#226,#227,#228,
#229,#230,#231,#232,#233,#234,#235,#236,#237,#238,#239,#240,#241),
 .UNSPECIFIED.,.F.,.F.,(4,2,2,2,2,2,2,2,2,2,2,2,2,2,2,2,2,2,2,2,2,2,2,2,
4),(0.,0.457438473909458,0.914876947818916,1.37231542172837,1.82975389563783,
2.28648034099922,2.74320678636061,3.199933231722,3.65665967708339,4.11338612244478,
4.57011256780617,5.02683901316755,5.48356545852894,5.9410039324384,6.39844240634786,
6.85588088025732,7.31331935416678,7.77075782807623,8.22819630198569,8.68563477589515,
9.14307324980461,9.599799695166,10.0565261405274,10.5132525858888,10.9699790312502),
 .UNSPECIFIED.);
#57=B_SPLINE_CURVE_WITH_KNOTS('',3,(#242,#243,#244,#245,#246,#247,#248,
#249,#250,#251,#252,#253,#254,#255,#256,#257,#258,#259),.UNSPECIFIED.,.F.,
 .F.,(4,2,2,2,2,2,2,2,4),(10.9699790312502,11.4267054766116,11.8834319219729,
12.3401583673343,12.7968848126957,13.2543232866052,13.7117617605146,14.1692002344241,
14.6266387083336),.UNSPECIFIED.);
#58=B_SPLINE_CURVE_WITH_KNOTS('',3,(#275,#276,#277,#278,#279,#280,#281,
#282,#283,#284,#285,#286,#287,#288,#289,#290,#291,#292),.UNSPECIFIED.,.F.,
 .F.,(4,2,2,2,2,2,2,2,4),(0.,0.48627497925141,0.97254995850282,1.45882493775423,
1.94509991700564,2.43059433500315,2.91608875300065,3.40158317099816,3.88707758899566),
 .UNSPECIFIED.);
#59=B_SPLINE_CURVE_WITH_KNOTS('',3,(#293,#294,#295,#296,#297,#298,#299,
#300,#301,#302,#303,#304,#305,#306,#307,#308,#309,#310,#311,#312,#313,#314,
#315,#316,#317,#318,#319,#320,#321,#322,#323,#324,#325,#326,#327,#328,#329,
#330,#331,#332,#333,#334,#335,#336,#337,#338,#339,#340,#341,#342),
 .UNSPECIFIED.,.F.,.F.,(4,2,2,2,2,2,2,2,2,2,2,2,2,2,2,2,2,2,2,2,2,2,2,2,
4),(3.88707758899566,4.37257200699317,4.85806642499067,5.34356084298818,
5.82905526098569,6.3153302402371,6.80160521948851,7.28788019873992,7.77415517799133,
8.26043015724273,8.74670513649414,9.23298011574555,9.71925509499696,10.2047495129945,
10.690243930992,11.1757383489895,11.661232766987,12.1467271849845,12.632221602982,
13.1177160209795,13.603210438977,14.0894854182284,14.5757603974798,15.0620353767312,
15.5483103559827),.UNSPECIFIED.);
#60=VERTEX_POINT('',#190);
#61=VERTEX_POINT('',#191);
#62=VERTEX_POINT('',#260);
#63=VERTEX_POINT('',#264);
#64=VERTEX_POINT('',#266);
#65=VERTEX_POINT('',#270);
#66=VERTEX_POINT('',#272);
#67=VERTEX_POINT('',#274);
#68=VERTEX_POINT('',#345);
#69=VERTEX_POINT('',#348);
#70=EDGE_CURVE('',#60,#61,#56,.T.);
#71=EDGE_CURVE('',#61,#60,#57,.T.);
#72=EDGE_CURVE('',#61,#62,#48,.T.);
#73=EDGE_CURVE('',#62,#62,#42,.T.);
#74=EDGE_CURVE('',#63,#63,#43,.T.);
#75=EDGE_CURVE('',#63,#64,#49,.T.);
#76=EDGE_CURVE('',#64,#64,#44,.T.);
#77=EDGE_CURVE('',#65,#65,#45,.T.);
#78=EDGE_CURVE('',#65,#66,#50,.T.);
#79=EDGE_CURVE('',#67,#66,#58,.T.);
#80=EDGE_CURVE('',#66,#67,#59,.T.);
#81=EDGE_CURVE('',#68,#68,#46,.T.);
#82=EDGE_CURVE('',#69,#69,#47,.T.);
#83=EDGE_CURVE('',#69,#68,#51,.T.);
#84=ORIENTED_EDGE('',*,*,#70,.F.);
#85=ORIENTED_EDGE('',*,*,#71,.F.);
#86=ORIENTED_EDGE('',*,*,#72,.T.);
#87=ORIENTED_EDGE('',*,*,#73,.F.);
#88=ORIENTED_EDGE('',*,*,#72,.F.);
#89=ORIENTED_EDGE('',*,*,#74,.F.);
#90=ORIENTED_EDGE('',*,*,#75,.T.);
#91=ORIENTED_EDGE('',*,*,#76,.F.);
#92=ORIENTED_EDGE('',*,*,#75,.F.);
#93=ORIENTED_EDGE('',*,*,#70,.T.);
#94=ORIENTED_EDGE('',*,*,#71,.T.);
#95=ORIENTED_EDGE('',*,*,#77,.F.);
#96=ORIENTED_EDGE('',*,*,#78,.T.);
#97=ORIENTED_EDGE('',*,*,#79,.F.);
#98=ORIENTED_EDGE('',*,*,#80,.F.);
#99=ORIENTED_EDGE('',*,*,#78,.F.);
#100=ORIENTED_EDGE('',*,*,#77,.T.);
#101=ORIENTED_EDGE('',*,*,#73,.T.);
#102=ORIENTED_EDGE('',*,*,#81,.T.);
#103=ORIENTED_EDGE('',*,*,#74,.T.);
#104=ORIENTED_EDGE('',*,*,#82,.F.);
#105=ORIENTED_EDGE('',*,*,#83,.T.);
#106=ORIENTED_EDGE('',*,*,#81,.F.);
#107=ORIENTED_EDGE('',*,*,#83,.F.);
#108=ORIENTED_EDGE('',*,*,#79,.T.);
#109=ORIENTED_EDGE('',*,*,#80,.T.);
#110=ORIENTED_EDGE('',*,*,#82,.T.);
#111=ORIENTED_EDGE('',*,*,#76,.T.);
#112=CYLINDRICAL_SURFACE('',#143,23.9);
#113=CYLINDRICAL_SURFACE('',#145,54.15);
#114=CYLINDRICAL_SURFACE('',#148,25.4);
#115=CYLINDRICAL_SURFACE('',#153,57.15);
#116=ADVANCED_FACE('',(#23),#112,.F.);
#117=ADVANCED_FACE('',(#24,#18),#113,.F.);
#118=ADVANCED_FACE('',(#25),#114,.T.);
#119=ADVANCED_FACE('',(#26,#19),#15,.T.);
#120=ADVANCED_FACE('',(#27,#20),#16,.F.);
#121=ADVANCED_FACE('',(#28,#21),#115,.T.);
#122=ADVANCED_FACE('',(#29,#22),#17,.T.);
#123=CLOSED_SHELL('',(#116,#117,#118,#119,#120,#121,#122));
#124=DERIVED_UNIT_ELEMENT(#126,1.);
#125=DERIVED_UNIT_ELEMENT(#357,-3.);
#126=(
MASS_UNIT()
NAMED_UNIT(*)
SI_UNIT($,.GRAM.)
);
#127=DERIVED_UNIT((#124,#125));
#128=MEASURE_REPRESENTATION_ITEM('density measure',
POSITIVE_RATIO_MEASURE(1.),#127);
#129=PROPERTY_DEFINITION_REPRESENTATION(#134,#131);
#130=PROPERTY_DEFINITION_REPRESENTATION(#135,#132);
#131=REPRESENTATION('material name',(#133),#354);
#132=REPRESENTATION('density',(#128),#354);
#133=DESCRIPTIVE_REPRESENTATION_ITEM('\X2\4E00822C\X0\','\X2\4E00822C\X0\');
#134=PROPERTY_DEFINITION('material property','material name',#364);
#135=PROPERTY_DEFINITION('material property','density of part',#364);
#136=DATE_TIME_ROLE('creation_date');
#137=APPLIED_DATE_AND_TIME_ASSIGNMENT(#138,#136,(#364));
#138=DATE_AND_TIME(#139,#140);
#139=CALENDAR_DATE(2022,31,3);
#140=LOCAL_TIME(0,0,0.,#141);
#141=COORDINATED_UNIVERSAL_TIME_OFFSET(0,0,.BEHIND.);
#142=AXIS2_PLACEMENT_3D('placement',#188,#156,#157);
#143=AXIS2_PLACEMENT_3D('',#189,#158,#159);
#144=AXIS2_PLACEMENT_3D('',#262,#161,#162);
#145=AXIS2_PLACEMENT_3D('',#263,#163,#164);
#146=AXIS2_PLACEMENT_3D('',#265,#165,#166);
#147=AXIS2_PLACEMENT_3D('',#268,#168,#169);
#148=AXIS2_PLACEMENT_3D('',#269,#170,#171);
#149=AXIS2_PLACEMENT_3D('',#271,#172,#173);
#150=AXIS2_PLACEMENT_3D('',#343,#175,#176);
#151=AXIS2_PLACEMENT_3D('',#344,#177,#178);
#152=AXIS2_PLACEMENT_3D('',#346,#179,#180);
#153=AXIS2_PLACEMENT_3D('',#347,#181,#182);
#154=AXIS2_PLACEMENT_3D('',#349,#183,#184);
#155=AXIS2_PLACEMENT_3D('',#351,#186,#187);
#156=DIRECTION('axis',(0.,0.,1.));
#157=DIRECTION('refdir',(1.,0.,0.));
#158=DIRECTION('center_axis',(0.,0.,1.));
#159=DIRECTION('ref_axis',(1.,0.,0.));
#160=DIRECTION('',(0.,0.,1.));
#161=DIRECTION('center_axis',(0.,0.,-1.));
#162=DIRECTION('ref_axis',(1.,0.,0.));
#163=DIRECTION('center_axis',(1.,0.,0.));
#164=DIRECTION('ref_axis',(0.,1.,0.));
#165=DIRECTION('center_axis',(1.,0.,0.));
#166=DIRECTION('ref_axis',(0.,1.,0.));
#167=DIRECTION('',(1.,0.,0.));
#168=DIRECTION('center_axis',(-1.,0.,0.));
#169=DIRECTION('ref_axis',(0.,1.,0.));
#170=DIRECTION('center_axis',(0.,0.,1.));
#171=DIRECTION('ref_axis',(1.,0.,0.));
#172=DIRECTION('center_axis',(0.,0.,1.));
#173=DIRECTION('ref_axis',(1.,0.,0.));
#174=DIRECTION('',(0.,0.,-1.));
#175=DIRECTION('center_axis',(0.,0.,1.));
#176=DIRECTION('ref_axis',(1.,0.,0.));
#177=DIRECTION('center_axis',(1.,0.,0.));
#178=DIRECTION('ref_axis',(0.,0.,-1.));
#179=DIRECTION('center_axis',(-1.,0.,0.));
#180=DIRECTION('ref_axis',(0.,1.,0.));
#181=DIRECTION('center_axis',(1.,0.,0.));
#182=DIRECTION('ref_axis',(0.,1.,0.));
#183=DIRECTION('center_axis',(1.,0.,0.));
#184=DIRECTION('ref_axis',(0.,1.,0.));
#185=DIRECTION('',(-1.,0.,0.));
#186=DIRECTION('center_axis',(1.,0.,0.));
#187=DIRECTION('ref_axis',(0.,0.,-1.));
#188=CARTESIAN_POINT('',(0.,0.,0.));
#189=CARTESIAN_POINT('Origin',(0.,0.,0.));
#190=CARTESIAN_POINT('',(2.77555756156289E-16,-23.9,48.5902510798205));
#191=CARTESIAN_POINT('',(-23.9,-7.69563534590364E-16,54.15));
#192=CARTESIAN_POINT('Ctrl Pts',(2.77555756156289E-16,-23.9,48.5902510798205));
#193=CARTESIAN_POINT('Ctrl Pts',(1.52479491303153,-23.9,48.5902510798205));
#194=CARTESIAN_POINT('Ctrl Pts',(3.09353359619881,-23.75175568948,48.6640848537144));
#195=CARTESIAN_POINT('Ctrl Pts',(6.19910454127122,-23.1362691830399,48.9596987420568));
#196=CARTESIAN_POINT('Ctrl Pts',(7.736019362802,-22.6692478094863,49.1810711048656));
#197=CARTESIAN_POINT('Ctrl Pts',(10.6723348959227,-21.44393041977,49.7275610083986));
#198=CARTESIAN_POINT('Ctrl Pts',(12.0744700729819,-20.6846624295709,50.0524522415908));
#199=CARTESIAN_POINT('Ctrl Pts',(14.663092168838,-18.9378408402228,50.7391507550636));
#200=CARTESIAN_POINT('Ctrl Pts',(15.8496204949976,-17.9500836457194,51.1002838571039));
#201=CARTESIAN_POINT('Ctrl Pts',(17.9484489015813,-15.8512552391356,51.7897520674304));
#202=CARTESIAN_POINT('Ctrl Pts',(18.9359881328616,-14.6655215915795,52.1433554041596));
#203=CARTESIAN_POINT('Ctrl Pts',(20.6834904107014,-12.0765224577476,52.8030741685697));
#204=CARTESIAN_POINT('Ctrl Pts',(21.4435896735823,-10.673210558628,53.108646516267));
#205=CARTESIAN_POINT('Ctrl Pts',(22.6698642415437,-7.73448304155098,53.6155157728881));
#206=CARTESIAN_POINT('Ctrl Pts',(23.1370156825173,-6.19636411278721,53.8168863203201));
#207=CARTESIAN_POINT('Ctrl Pts',(23.7521809480414,-3.09035970892745,54.0842108041263));
#208=CARTESIAN_POINT('Ctrl Pts',(23.9,-1.52242148453796,54.15));
#209=CARTESIAN_POINT('Ctrl Pts',(23.9,1.52242148453796,54.15));
#210=CARTESIAN_POINT('Ctrl Pts',(23.7521809480414,3.09035970892745,54.0842108041262));
#211=CARTESIAN_POINT('Ctrl Pts',(23.1370156825173,6.19636411278721,53.8168863203201));
#212=CARTESIAN_POINT('Ctrl Pts',(22.6698642415437,7.73448304155098,53.6155157728881));
#213=CARTESIAN_POINT('Ctrl Pts',(21.4435896735823,10.673210558628,53.108646516267));
#214=CARTESIAN_POINT('Ctrl Pts',(20.6834904107014,12.0765224577476,52.8030741685697));
#215=CARTESIAN_POINT('Ctrl Pts',(18.9359881328616,14.6655215915795,52.1433554041596));
#216=CARTESIAN_POINT('Ctrl Pts',(17.9484489015813,15.8512552391356,51.7897520674304));
#217=CARTESIAN_POINT('Ctrl Pts',(15.8496204949976,17.9500836457194,51.1002838571039));
#218=CARTESIAN_POINT('Ctrl Pts',(14.663092168838,18.9378408402228,50.7391507550636));
#219=CARTESIAN_POINT('Ctrl Pts',(12.0744700729819,20.6846624295709,50.0524522415908));
#220=CARTESIAN_POINT('Ctrl Pts',(10.6723348959227,21.44393041977,49.7275610083986));
#221=CARTESIAN_POINT('Ctrl Pts',(7.736019362802,22.6692478094863,49.1810711048656));
#222=CARTESIAN_POINT('Ctrl Pts',(6.19910454127122,23.1362691830399,48.9596987420568));
#223=CARTESIAN_POINT('Ctrl Pts',(3.09353359619881,23.75175568948,48.6640848537144));
#224=CARTESIAN_POINT('Ctrl Pts',(1.52479491303153,23.9,48.5902510798205));
#225=CARTESIAN_POINT('Ctrl Pts',(-1.52479491303153,23.9,48.5902510798205));
#226=CARTESIAN_POINT('Ctrl Pts',(-3.0935335961988,23.75175568948,48.6640848537144));
#227=CARTESIAN_POINT('Ctrl Pts',(-6.19910454127122,23.1362691830399,48.9596987420568));
#228=CARTESIAN_POINT('Ctrl Pts',(-7.736019362802,22.6692478094863,49.1810711048656));
#229=CARTESIAN_POINT('Ctrl Pts',(-10.6723348959227,21.44393041977,49.7275610083986));
#230=CARTESIAN_POINT('Ctrl Pts',(-12.0744700729819,20.6846624295709,50.0524522415908));
#231=CARTESIAN_POINT('Ctrl Pts',(-14.663092168838,18.9378408402228,50.7391507550636));
#232=CARTESIAN_POINT('Ctrl Pts',(-15.8496204949976,17.9500836457194,51.1002838571039));
#233=CARTESIAN_POINT('Ctrl Pts',(-17.9484489015813,15.8512552391356,51.7897520674304));
#234=CARTESIAN_POINT('Ctrl Pts',(-18.9359881328616,14.6655215915795,52.1433554041596));
#235=CARTESIAN_POINT('Ctrl Pts',(-20.6834904107014,12.0765224577476,52.8030741685697));
#236=CARTESIAN_POINT('Ctrl Pts',(-21.4435896735823,10.673210558628,53.108646516267));
#237=CARTESIAN_POINT('Ctrl Pts',(-22.6698642415437,7.73448304155098,53.6155157728881));
#238=CARTESIAN_POINT('Ctrl Pts',(-23.1370156825173,6.19636411278722,53.8168863203201));
#239=CARTESIAN_POINT('Ctrl Pts',(-23.7521809480414,3.09035970892746,54.0842108041263));
#240=CARTESIAN_POINT('Ctrl Pts',(-23.9,1.52242148453797,54.15));
#241=CARTESIAN_POINT('Ctrl Pts',(-23.9,2.4980018054066E-15,54.15));
#242=CARTESIAN_POINT('Ctrl Pts',(-23.9,1.38777878078145E-15,54.15));
#243=CARTESIAN_POINT('Ctrl Pts',(-23.9,-1.52242148453796,54.15));
#244=CARTESIAN_POINT('Ctrl Pts',(-23.7521809480414,-3.09035970892745,54.0842108041263));
#245=CARTESIAN_POINT('Ctrl Pts',(-23.1370156825173,-6.19636411278721,53.8168863203201));
#246=CARTESIAN_POINT('Ctrl Pts',(-22.6698642415437,-7.73448304155097,53.6155157728881));
#247=CARTESIAN_POINT('Ctrl Pts',(-21.4435896735823,-10.673210558628,53.108646516267));
#248=CARTESIAN_POINT('Ctrl Pts',(-20.6834904107014,-12.0765224577476,52.8030741685697));
#249=CARTESIAN_POINT('Ctrl Pts',(-18.9359881328616,-14.6655215915795,52.1433554041596));
#250=CARTESIAN_POINT('Ctrl Pts',(-17.9484489015813,-15.8512552391356,51.7897520674304));
#251=CARTESIAN_POINT('Ctrl Pts',(-15.8496204949976,-17.9500836457194,51.1002838571039));
#252=CARTESIAN_POINT('Ctrl Pts',(-14.663092168838,-18.9378408402228,50.7391507550636));
#253=CARTESIAN_POINT('Ctrl Pts',(-12.0744700729819,-20.6846624295709,50.0524522415908));
#254=CARTESIAN_POINT('Ctrl Pts',(-10.6723348959227,-21.44393041977,49.7275610083986));
#255=CARTESIAN_POINT('Ctrl Pts',(-7.736019362802,-22.6692478094863,49.1810711048656));
#256=CARTESIAN_POINT('Ctrl Pts',(-6.19910454127122,-23.1362691830399,48.9596987420568));
#257=CARTESIAN_POINT('Ctrl Pts',(-3.0935335961988,-23.75175568948,48.6640848537144));
#258=CARTESIAN_POINT('Ctrl Pts',(-1.52479491303153,-23.9,48.5902510798205));
#259=CARTESIAN_POINT('Ctrl Pts',(-1.11022302462516E-15,-23.9,48.5902510798205));
#260=CARTESIAN_POINT('',(-23.9,2.92690584996217E-15,120.));
#261=CARTESIAN_POINT('',(-23.9,-2.92690584996217E-15,0.));
#262=CARTESIAN_POINT('Origin',(0.,0.,120.));
#263=CARTESIAN_POINT('Origin',(0.,0.,0.));
#264=CARTESIAN_POINT('',(-120.,-54.15,-6.63146241738292E-15));
#265=CARTESIAN_POINT('Origin',(-120.,0.,0.));
#266=CARTESIAN_POINT('',(120.,-54.15,6.63146241738292E-15));
#267=CARTESIAN_POINT('',(0.,-54.15,-6.63146241738292E-15));
#268=CARTESIAN_POINT('Origin',(120.,0.,0.));
#269=CARTESIAN_POINT('Origin',(0.,0.,0.));
#270=CARTESIAN_POINT('',(-25.4,-3.11060286983428E-15,120.));
#271=CARTESIAN_POINT('Origin',(0.,0.,120.));
#272=CARTESIAN_POINT('',(-25.4,-2.52674658146415E-15,57.15));
#273=CARTESIAN_POINT('',(-25.4,-3.11060286983428E-15,0.));
#274=CARTESIAN_POINT('',(2.77555756156289E-16,-25.4,51.1953367016958));
#275=CARTESIAN_POINT('Ctrl Pts',(2.77555756156289E-16,-25.4,51.1953367016958));
#276=CARTESIAN_POINT('Ctrl Pts',(-1.6209165975047,-25.4,51.1953367016958));
#277=CARTESIAN_POINT('Ctrl Pts',(-3.28839151391041,-25.2423706393737,51.2745293775739));
#278=CARTESIAN_POINT('Ctrl Pts',(-6.58916163027547,-24.5880813341313,51.5914808304449));
#279=CARTESIAN_POINT('Ctrl Pts',(-8.22254605394573,-24.0916577638255,51.8287981693266));
#280=CARTESIAN_POINT('Ctrl Pts',(-11.3429914317201,-22.7893591075904,52.4144762281409));
#281=CARTESIAN_POINT('Ctrl Pts',(-12.8329644086032,-21.9824508810319,52.7625919924084));
#282=CARTESIAN_POINT('Ctrl Pts',(-15.5837053161504,-20.126133537757,53.4982056624451));
#283=CARTESIAN_POINT('Ctrl Pts',(-16.8445185524572,-19.0765059318194,53.8849826030771));
#284=CARTESIAN_POINT('Ctrl Pts',(-19.0747145556003,-16.8463099286763,54.6232719410526));
#285=CARTESIAN_POINT('Ctrl Pts',(-20.1241025022752,-15.5863683143411,55.0018594149039));
#286=CARTESIAN_POINT('Ctrl Pts',(-21.9811645357676,-12.835216575582,55.708137931067));
#287=CARTESIAN_POINT('Ctrl Pts',(-22.7889834503941,-11.3439554983735,56.0352495661353));
#288=CARTESIAN_POINT('Ctrl Pts',(-24.0923317242059,-8.22086720718227,56.577838982666));
#289=CARTESIAN_POINT('Ctrl Pts',(-24.5888987177404,-6.58616187259862,56.7933975433996));
#290=CARTESIAN_POINT('Ctrl Pts',(-25.2428367924368,-3.28491385620342,57.0795661659738));
#291=CARTESIAN_POINT('Ctrl Pts',(-25.4,-1.61831472665836,57.15));
#292=CARTESIAN_POINT('Ctrl Pts',(-25.4,-3.05311331771918E-15,57.15));
#293=CARTESIAN_POINT('Ctrl Pts',(-25.4,-1.94289029309402E-15,57.15));
#294=CARTESIAN_POINT('Ctrl Pts',(-25.4,1.61831472665835,57.15));
#295=CARTESIAN_POINT('Ctrl Pts',(-25.2428367924368,3.28491385620342,57.0795661659738));
#296=CARTESIAN_POINT('Ctrl Pts',(-24.5888987177404,6.58616187259861,56.7933975433996));
#297=CARTESIAN_POINT('Ctrl Pts',(-24.0923317242059,8.22086720718227,56.577838982666));
#298=CARTESIAN_POINT('Ctrl Pts',(-22.7889834503941,11.3439554983735,56.0352495661353));
#299=CARTESIAN_POINT('Ctrl Pts',(-21.9811645357676,12.835216575582,55.708137931067));
#300=CARTESIAN_POINT('Ctrl Pts',(-20.1241025022752,15.5863683143411,55.0018594149039));
#301=CARTESIAN_POINT('Ctrl Pts',(-19.0747145556003,16.8463099286763,54.6232719410526));
#302=CARTESIAN_POINT('Ctrl Pts',(-16.8445185524572,19.0765059318194,53.8849826030771));
#303=CARTESIAN_POINT('Ctrl Pts',(-15.5837053161504,20.126133537757,53.4982056624451));
#304=CARTESIAN_POINT('Ctrl Pts',(-12.8329644086032,21.9824508810319,52.7625919924084));
#305=CARTESIAN_POINT('Ctrl Pts',(-11.3429914317202,22.7893591075904,52.4144762281409));
#306=CARTESIAN_POINT('Ctrl Pts',(-8.22254605394574,24.0916577638255,51.8287981693266));
#307=CARTESIAN_POINT('Ctrl Pts',(-6.58916163027547,24.5880813341313,51.5914808304449));
#308=CARTESIAN_POINT('Ctrl Pts',(-3.28839151391041,25.2423706393737,51.2745293775739));
#309=CARTESIAN_POINT('Ctrl Pts',(-1.6209165975047,25.4,51.1953367016958));
#310=CARTESIAN_POINT('Ctrl Pts',(1.6209165975047,25.4,51.1953367016958));
#311=CARTESIAN_POINT('Ctrl Pts',(3.2883915139104,25.2423706393737,51.2745293775739));
#312=CARTESIAN_POINT('Ctrl Pts',(6.58916163027546,24.5880813341313,51.5914808304449));
#313=CARTESIAN_POINT('Ctrl Pts',(8.22254605394573,24.0916577638255,51.8287981693266));
#314=CARTESIAN_POINT('Ctrl Pts',(11.3429914317201,22.7893591075904,52.4144762281409));
#315=CARTESIAN_POINT('Ctrl Pts',(12.8329644086032,21.9824508810319,52.7625919924084));
#316=CARTESIAN_POINT('Ctrl Pts',(15.5837053161504,20.126133537757,53.4982056624451));
#317=CARTESIAN_POINT('Ctrl Pts',(16.8445185524572,19.0765059318194,53.8849826030771));
#318=CARTESIAN_POINT('Ctrl Pts',(19.0747145556003,16.8463099286763,54.6232719410526));
#319=CARTESIAN_POINT('Ctrl Pts',(20.1241025022752,15.5863683143411,55.0018594149039));
#320=CARTESIAN_POINT('Ctrl Pts',(21.9811645357676,12.835216575582,55.708137931067));
#321=CARTESIAN_POINT('Ctrl Pts',(22.7889834503941,11.3439554983735,56.0352495661353));
#322=CARTESIAN_POINT('Ctrl Pts',(24.0923317242059,8.22086720718228,56.577838982666));
#323=CARTESIAN_POINT('Ctrl Pts',(24.5888987177404,6.58616187259862,56.7933975433996));
#324=CARTESIAN_POINT('Ctrl Pts',(25.2428367924368,3.28491385620343,57.0795661659738));
#325=CARTESIAN_POINT('Ctrl Pts',(25.4,1.61831472665836,57.15));
#326=CARTESIAN_POINT('Ctrl Pts',(25.4,-1.61831472665835,57.15));
#327=CARTESIAN_POINT('Ctrl Pts',(25.2428367924368,-3.28491385620342,57.0795661659738));
#328=CARTESIAN_POINT('Ctrl Pts',(24.5888987177404,-6.58616187259861,56.7933975433996));
#329=CARTESIAN_POINT('Ctrl Pts',(24.0923317242059,-8.22086720718227,56.577838982666));
#330=CARTESIAN_POINT('Ctrl Pts',(22.7889834503941,-11.3439554983735,56.0352495661353));
#331=CARTESIAN_POINT('Ctrl Pts',(21.9811645357676,-12.835216575582,55.708137931067));
#332=CARTESIAN_POINT('Ctrl Pts',(20.1241025022752,-15.5863683143411,55.0018594149039));
#333=CARTESIAN_POINT('Ctrl Pts',(19.0747145556003,-16.8463099286763,54.6232719410526));
#334=CARTESIAN_POINT('Ctrl Pts',(16.8445185524572,-19.0765059318194,53.8849826030771));
#335=CARTESIAN_POINT('Ctrl Pts',(15.5837053161504,-20.126133537757,53.4982056624451));
#336=CARTESIAN_POINT('Ctrl Pts',(12.8329644086032,-21.9824508810319,52.7625919924084));
#337=CARTESIAN_POINT('Ctrl Pts',(11.3429914317201,-22.7893591075904,52.4144762281409));
#338=CARTESIAN_POINT('Ctrl Pts',(8.22254605394573,-24.0916577638255,51.8287981693266));
#339=CARTESIAN_POINT('Ctrl Pts',(6.58916163027547,-24.5880813341313,51.5914808304449));
#340=CARTESIAN_POINT('Ctrl Pts',(3.28839151391041,-25.2423706393737,51.2745293775739));
#341=CARTESIAN_POINT('Ctrl Pts',(1.6209165975047,-25.4,51.1953367016958));
#342=CARTESIAN_POINT('Ctrl Pts',(-2.77555756156289E-16,-25.4,51.1953367016958));
#343=CARTESIAN_POINT('Origin',(0.,0.,120.));
#344=CARTESIAN_POINT('Origin',(-120.,0.,0.));
#345=CARTESIAN_POINT('',(-120.,-57.15,-6.99885645712712E-15));
#346=CARTESIAN_POINT('Origin',(-120.,0.,0.));
#347=CARTESIAN_POINT('Origin',(0.,0.,0.));
#348=CARTESIAN_POINT('',(120.,-57.15,-6.99885645712712E-15));
#349=CARTESIAN_POINT('Origin',(120.,0.,0.));
#350=CARTESIAN_POINT('',(0.,-57.15,-6.99885645712712E-15));
#351=CARTESIAN_POINT('Origin',(120.,0.,0.));
#352=UNCERTAINTY_MEASURE_WITH_UNIT(LENGTH_MEASURE(0.01),#356,
'DISTANCE_ACCURACY_VALUE',
'Maximum model space distance between geometric entities at asserted c
onnectivities');
#353=UNCERTAINTY_MEASURE_WITH_UNIT(LENGTH_MEASURE(0.01),#356,
'DISTANCE_ACCURACY_VALUE',
'Maximum model space distance between geometric entities at asserted c
onnectivities');
#354=(
GEOMETRIC_REPRESENTATION_CONTEXT(3)
GLOBAL_UNCERTAINTY_ASSIGNED_CONTEXT((#352))
GLOBAL_UNIT_ASSIGNED_CONTEXT((#356,#358,#359))
REPRESENTATION_CONTEXT('','3D')
);
#355=(
GEOMETRIC_REPRESENTATION_CONTEXT(3)
GLOBAL_UNCERTAINTY_ASSIGNED_CONTEXT((#353))
GLOBAL_UNIT_ASSIGNED_CONTEXT((#356,#358,#359))
REPRESENTATION_CONTEXT('','3D')
);
#356=(
LENGTH_UNIT()
NAMED_UNIT(*)
SI_UNIT(.MILLI.,.METRE.)
);
#357=(
LENGTH_UNIT()
NAMED_UNIT(*)
SI_UNIT(.CENTI.,.METRE.)
);
#358=(
NAMED_UNIT(*)
PLANE_ANGLE_UNIT()
SI_UNIT($,.RADIAN.)
);
#359=(
NAMED_UNIT(*)
SI_UNIT($,.STERADIAN.)
SOLID_ANGLE_UNIT()
);
#360=SHAPE_DEFINITION_REPRESENTATION(#361,#362);
#361=PRODUCT_DEFINITION_SHAPE('',$,#364);
#362=SHAPE_REPRESENTATION('',(#142),#354);
#363=PRODUCT_DEFINITION_CONTEXT('part definition',#368,'design');
#364=PRODUCT_DEFINITION('D8(R) 45\X\D720','D8(R) 45\X\D720',#365,#363);
#365=PRODUCT_DEFINITION_FORMATION('',$,#370);
#366=PRODUCT_RELATED_PRODUCT_CATEGORY('D8(R) 45\X\D720','D8(R) 45\X\D7
20',(#370));
#367=APPLICATION_PROTOCOL_DEFINITION('international standard',
'automotive_design',2009,#368);
#368=APPLICATION_CONTEXT(
'Core Data for Automotive Mechanical Design Process');
#369=PRODUCT_CONTEXT('part definition',#368,'mechanical');
#370=PRODUCT('D8(R) 45\X\D720','D8(R) 45\X\D720',$,(#369));
#371=PRESENTATION_STYLE_ASSIGNMENT((#372));
#372=SURFACE_STYLE_USAGE(.BOTH.,#375);
#373=SURFACE_STYLE_RENDERING_WITH_PROPERTIES($,#379,(#374));
#374=SURFACE_STYLE_TRANSPARENT(0.);
#375=SURFACE_SIDE_STYLE('',(#376,#373));
#376=SURFACE_STYLE_FILL_AREA(#377);
#377=FILL_AREA_STYLE('',(#378));
#378=FILL_AREA_STYLE_COLOUR('',#379);
#379=COLOUR_RGB('',0.749019607843137,0.749019607843137,0.749019607843137);
ENDSEC;
END-ISO-10303-21;
