ISO-10303-21;
HEADER;
/* Generated by software containing ST-Developer
 * from STEP Tools, Inc. (www.steptools.com) 
 */

FILE_DESCRIPTION(
/* description */ (''),
/* implementation_level */ '2;1');

FILE_NAME(
/* name */ 
'\\\\Tske00\\w\\Work\\TOSTE\\\X2\7D99624B\X0\\\02_\X2\6EB663A5\X0\\\\X2\6EB663A5752830C130FC30BA\X0\\\
D8(R)\\D8(R) 40\X\D720.stp',
/* time_stamp */ '2022-04-12T17:38:55+09:00',
/* author */ ('3dcad-eng'),
/* organization */ (''),
/* preprocessor_version */ 'ST-DEVELOPER v18.1',
/* originating_system */ 'Autodesk Inventor 2022',
/* authorisation */ '');

FILE_SCHEMA (('AUTOMOTIVE_DESIGN { 1 0 10303 214 3 1 1 }'));
ENDSEC;

DATA;
#10=MECHANICAL_DESIGN_GEOMETRIC_PRESENTATION_REPRESENTATION('',(#13),#355);
#11=SHAPE_REPRESENTATION_RELATIONSHIP('SRR','None',#362,#12);
#12=ADVANCED_BREP_SHAPE_REPRESENTATION('',(#14),#354);
#13=STYLED_ITEM('',(#371),#14);
#14=MANIFOLD_SOLID_BREP('\X2\30BD30EA30C330C9\X0\1',#123);
#15=PLANE('',#150);
#16=PLANE('',#151);
#17=PLANE('',#155);
#18=FACE_BOUND('',#32,.T.);
#19=FACE_BOUND('',#35,.T.);
#20=FACE_BOUND('',#37,.T.);
#21=FACE_BOUND('',#39,.T.);
#22=FACE_BOUND('',#41,.T.);
#23=FACE_OUTER_BOUND('',#30,.T.);
#24=FACE_OUTER_BOUND('',#31,.T.);
#25=FACE_OUTER_BOUND('',#33,.T.);
#26=FACE_OUTER_BOUND('',#34,.T.);
#27=FACE_OUTER_BOUND('',#36,.T.);
#28=FACE_OUTER_BOUND('',#38,.T.);
#29=FACE_OUTER_BOUND('',#40,.T.);
#30=EDGE_LOOP('',(#84,#85,#86,#87,#88));
#31=EDGE_LOOP('',(#89,#90,#91,#92));
#32=EDGE_LOOP('',(#93,#94));
#33=EDGE_LOOP('',(#95,#96,#97,#98,#99));
#34=EDGE_LOOP('',(#100));
#35=EDGE_LOOP('',(#101));
#36=EDGE_LOOP('',(#102));
#37=EDGE_LOOP('',(#103));
#38=EDGE_LOOP('',(#104,#105,#106,#107));
#39=EDGE_LOOP('',(#108,#109));
#40=EDGE_LOOP('',(#110));
#41=EDGE_LOOP('',(#111));
#42=CIRCLE('',#144,23.9);
#43=CIRCLE('',#146,48.8);
#44=CIRCLE('',#147,48.8);
#45=CIRCLE('',#149,25.4);
#46=CIRCLE('',#152,50.8);
#47=CIRCLE('',#154,50.8);
#48=LINE('',#261,#52);
#49=LINE('',#267,#53);
#50=LINE('',#273,#54);
#51=LINE('',#350,#55);
#52=VECTOR('',#160,23.9);
#53=VECTOR('',#167,48.8);
#54=VECTOR('',#174,25.4);
#55=VECTOR('',#185,50.8);
#56=B_SPLINE_CURVE_WITH_KNOTS('',3,(#192,#193,#194,#195,#196,#197,#198,
#199,#200,#201,#202,#203,#204,#205,#206,#207,#208,#209,#210,#211,#212,#213,
#214,#215,#216,#217,#218,#219,#220,#221,#222,#223,#224,#225,#226,#227,#228,
#229,#230,#231,#232,#233,#234,#235,#236,#237,#238,#239,#240,#241),
 .UNSPECIFIED.,.F.,.F.,(4,2,2,2,2,2,2,2,2,2,2,2,2,2,2,2,2,2,2,2,2,2,2,2,
4),(0.,0.459488753718671,0.918977507437342,1.37846626115601,1.83795501487468,
2.2963039408865,2.75465286689832,3.21300179291014,3.67135071892196,4.12969964493378,
4.5880485709456,5.04639749695742,5.50474642296924,5.96423517668791,6.42372393040658,
6.88321268412525,7.34270143784392,7.8021901915626,8.26167894528127,8.72116769899994,
9.18065645271861,9.63900537873043,10.0973543047422,10.5557032307541,11.0140521567659),
 .UNSPECIFIED.);
#57=B_SPLINE_CURVE_WITH_KNOTS('',3,(#242,#243,#244,#245,#246,#247,#248,
#249,#250,#251,#252,#253,#254,#255,#256,#257,#258,#259),.UNSPECIFIED.,.F.,
 .F.,(4,2,2,2,2,2,2,2,4),(11.0140521567659,11.4724010827777,11.9307500087895,
12.3890989348013,12.8474478608132,13.3069366145318,13.7664253682505,14.2259141219692,
14.6854028756878),.UNSPECIFIED.);
#58=B_SPLINE_CURVE_WITH_KNOTS('',3,(#275,#276,#277,#278,#279,#280,#281,
#282,#283,#284,#285,#286,#287,#288,#289,#290,#291,#292),.UNSPECIFIED.,.F.,
 .F.,(4,2,2,2,2,2,2,2,4),(0.,0.488842305119471,0.977684610238942,1.46652691535841,
1.95536922047788,2.44287891770199,2.93038861492609,3.4178983121502,3.9054080093743),
 .UNSPECIFIED.);
#59=B_SPLINE_CURVE_WITH_KNOTS('',3,(#293,#294,#295,#296,#297,#298,#299,
#300,#301,#302,#303,#304,#305,#306,#307,#308,#309,#310,#311,#312,#313,#314,
#315,#316,#317,#318,#319,#320,#321,#322,#323,#324,#325,#326,#327,#328,#329,
#330,#331,#332,#333,#334,#335,#336,#337,#338,#339,#340,#341,#342),
 .UNSPECIFIED.,.F.,.F.,(4,2,2,2,2,2,2,2,2,2,2,2,2,2,2,2,2,2,2,2,2,2,2,2,
4),(3.9054080093743,4.39291770659841,4.88042740382251,5.36793710104662,
5.85544679827072,6.34428910339019,6.83313140850967,7.32197371362914,7.81081601874861,
8.29965832386808,8.78850062898755,9.27734293410702,9.76618523922649,10.2536949364506,
10.7412046336747,11.2287143308988,11.7162240281229,12.203733725347,12.6912434225711,
13.1787531197952,13.6662628170193,14.1551051221388,14.6439474272583,15.1327897323777,
15.6216320374972),.UNSPECIFIED.);
#60=VERTEX_POINT('',#190);
#61=VERTEX_POINT('',#191);
#62=VERTEX_POINT('',#260);
#63=VERTEX_POINT('',#264);
#64=VERTEX_POINT('',#266);
#65=VERTEX_POINT('',#270);
#66=VERTEX_POINT('',#272);
#67=VERTEX_POINT('',#274);
#68=VERTEX_POINT('',#345);
#69=VERTEX_POINT('',#348);
#70=EDGE_CURVE('',#60,#61,#56,.T.);
#71=EDGE_CURVE('',#61,#60,#57,.T.);
#72=EDGE_CURVE('',#61,#62,#48,.T.);
#73=EDGE_CURVE('',#62,#62,#42,.T.);
#74=EDGE_CURVE('',#63,#63,#43,.T.);
#75=EDGE_CURVE('',#63,#64,#49,.T.);
#76=EDGE_CURVE('',#64,#64,#44,.T.);
#77=EDGE_CURVE('',#65,#65,#45,.T.);
#78=EDGE_CURVE('',#65,#66,#50,.T.);
#79=EDGE_CURVE('',#67,#66,#58,.T.);
#80=EDGE_CURVE('',#66,#67,#59,.T.);
#81=EDGE_CURVE('',#68,#68,#46,.T.);
#82=EDGE_CURVE('',#69,#69,#47,.T.);
#83=EDGE_CURVE('',#69,#68,#51,.T.);
#84=ORIENTED_EDGE('',*,*,#70,.F.);
#85=ORIENTED_EDGE('',*,*,#71,.F.);
#86=ORIENTED_EDGE('',*,*,#72,.T.);
#87=ORIENTED_EDGE('',*,*,#73,.F.);
#88=ORIENTED_EDGE('',*,*,#72,.F.);
#89=ORIENTED_EDGE('',*,*,#74,.F.);
#90=ORIENTED_EDGE('',*,*,#75,.T.);
#91=ORIENTED_EDGE('',*,*,#76,.F.);
#92=ORIENTED_EDGE('',*,*,#75,.F.);
#93=ORIENTED_EDGE('',*,*,#70,.T.);
#94=ORIENTED_EDGE('',*,*,#71,.T.);
#95=ORIENTED_EDGE('',*,*,#77,.F.);
#96=ORIENTED_EDGE('',*,*,#78,.T.);
#97=ORIENTED_EDGE('',*,*,#79,.F.);
#98=ORIENTED_EDGE('',*,*,#80,.F.);
#99=ORIENTED_EDGE('',*,*,#78,.F.);
#100=ORIENTED_EDGE('',*,*,#77,.T.);
#101=ORIENTED_EDGE('',*,*,#73,.T.);
#102=ORIENTED_EDGE('',*,*,#81,.T.);
#103=ORIENTED_EDGE('',*,*,#74,.T.);
#104=ORIENTED_EDGE('',*,*,#82,.F.);
#105=ORIENTED_EDGE('',*,*,#83,.T.);
#106=ORIENTED_EDGE('',*,*,#81,.F.);
#107=ORIENTED_EDGE('',*,*,#83,.F.);
#108=ORIENTED_EDGE('',*,*,#79,.T.);
#109=ORIENTED_EDGE('',*,*,#80,.T.);
#110=ORIENTED_EDGE('',*,*,#82,.T.);
#111=ORIENTED_EDGE('',*,*,#76,.T.);
#112=CYLINDRICAL_SURFACE('',#143,23.9);
#113=CYLINDRICAL_SURFACE('',#145,48.8);
#114=CYLINDRICAL_SURFACE('',#148,25.4);
#115=CYLINDRICAL_SURFACE('',#153,50.8);
#116=ADVANCED_FACE('',(#23),#112,.F.);
#117=ADVANCED_FACE('',(#24,#18),#113,.F.);
#118=ADVANCED_FACE('',(#25),#114,.T.);
#119=ADVANCED_FACE('',(#26,#19),#15,.T.);
#120=ADVANCED_FACE('',(#27,#20),#16,.F.);
#121=ADVANCED_FACE('',(#28,#21),#115,.T.);
#122=ADVANCED_FACE('',(#29,#22),#17,.T.);
#123=CLOSED_SHELL('',(#116,#117,#118,#119,#120,#121,#122));
#124=DERIVED_UNIT_ELEMENT(#126,1.);
#125=DERIVED_UNIT_ELEMENT(#357,-3.);
#126=(
MASS_UNIT()
NAMED_UNIT(*)
SI_UNIT($,.GRAM.)
);
#127=DERIVED_UNIT((#124,#125));
#128=MEASURE_REPRESENTATION_ITEM('density measure',
POSITIVE_RATIO_MEASURE(1.),#127);
#129=PROPERTY_DEFINITION_REPRESENTATION(#134,#131);
#130=PROPERTY_DEFINITION_REPRESENTATION(#135,#132);
#131=REPRESENTATION('material name',(#133),#354);
#132=REPRESENTATION('density',(#128),#354);
#133=DESCRIPTIVE_REPRESENTATION_ITEM('\X2\4E00822C\X0\','\X2\4E00822C\X0\');
#134=PROPERTY_DEFINITION('material property','material name',#364);
#135=PROPERTY_DEFINITION('material property','density of part',#364);
#136=DATE_TIME_ROLE('creation_date');
#137=APPLIED_DATE_AND_TIME_ASSIGNMENT(#138,#136,(#364));
#138=DATE_AND_TIME(#139,#140);
#139=CALENDAR_DATE(2022,31,3);
#140=LOCAL_TIME(0,0,0.,#141);
#141=COORDINATED_UNIVERSAL_TIME_OFFSET(0,0,.BEHIND.);
#142=AXIS2_PLACEMENT_3D('placement',#188,#156,#157);
#143=AXIS2_PLACEMENT_3D('',#189,#158,#159);
#144=AXIS2_PLACEMENT_3D('',#262,#161,#162);
#145=AXIS2_PLACEMENT_3D('',#263,#163,#164);
#146=AXIS2_PLACEMENT_3D('',#265,#165,#166);
#147=AXIS2_PLACEMENT_3D('',#268,#168,#169);
#148=AXIS2_PLACEMENT_3D('',#269,#170,#171);
#149=AXIS2_PLACEMENT_3D('',#271,#172,#173);
#150=AXIS2_PLACEMENT_3D('',#343,#175,#176);
#151=AXIS2_PLACEMENT_3D('',#344,#177,#178);
#152=AXIS2_PLACEMENT_3D('',#346,#179,#180);
#153=AXIS2_PLACEMENT_3D('',#347,#181,#182);
#154=AXIS2_PLACEMENT_3D('',#349,#183,#184);
#155=AXIS2_PLACEMENT_3D('',#351,#186,#187);
#156=DIRECTION('axis',(0.,0.,1.));
#157=DIRECTION('refdir',(1.,0.,0.));
#158=DIRECTION('center_axis',(0.,0.,1.));
#159=DIRECTION('ref_axis',(1.,0.,0.));
#160=DIRECTION('',(0.,0.,1.));
#161=DIRECTION('center_axis',(0.,0.,-1.));
#162=DIRECTION('ref_axis',(1.,0.,0.));
#163=DIRECTION('center_axis',(1.,0.,0.));
#164=DIRECTION('ref_axis',(0.,1.,0.));
#165=DIRECTION('center_axis',(1.,0.,0.));
#166=DIRECTION('ref_axis',(0.,1.,0.));
#167=DIRECTION('',(1.,0.,0.));
#168=DIRECTION('center_axis',(-1.,0.,0.));
#169=DIRECTION('ref_axis',(0.,1.,0.));
#170=DIRECTION('center_axis',(0.,0.,1.));
#171=DIRECTION('ref_axis',(1.,0.,0.));
#172=DIRECTION('center_axis',(0.,0.,1.));
#173=DIRECTION('ref_axis',(1.,0.,0.));
#174=DIRECTION('',(0.,0.,-1.));
#175=DIRECTION('center_axis',(0.,0.,1.));
#176=DIRECTION('ref_axis',(1.,0.,0.));
#177=DIRECTION('center_axis',(1.,0.,0.));
#178=DIRECTION('ref_axis',(0.,0.,-1.));
#179=DIRECTION('center_axis',(-1.,0.,0.));
#180=DIRECTION('ref_axis',(0.,1.,0.));
#181=DIRECTION('center_axis',(1.,0.,0.));
#182=DIRECTION('ref_axis',(0.,1.,0.));
#183=DIRECTION('center_axis',(1.,0.,0.));
#184=DIRECTION('ref_axis',(0.,1.,0.));
#185=DIRECTION('',(-1.,0.,0.));
#186=DIRECTION('center_axis',(1.,0.,0.));
#187=DIRECTION('ref_axis',(0.,0.,-1.));
#188=CARTESIAN_POINT('',(0.,0.,0.));
#189=CARTESIAN_POINT('Origin',(0.,0.,0.));
#190=CARTESIAN_POINT('',(-2.77555756156289E-16,-23.9,42.5467977643441));
#191=CARTESIAN_POINT('',(-23.9,-3.53229900355931E-16,48.8));
#192=CARTESIAN_POINT('Ctrl Pts',(2.77555756156289E-16,-23.9,42.5467977643441));
#193=CARTESIAN_POINT('Ctrl Pts',(1.53162917906224,-23.9,42.5467977643441));
#194=CARTESIAN_POINT('Ctrl Pts',(3.10481570236917,-23.7504487496255,42.6319176635318));
#195=CARTESIAN_POINT('Ctrl Pts',(6.21488957201033,-23.1322036241332,42.9705175027723));
#196=CARTESIAN_POINT('Ctrl Pts',(7.75188576480438,-22.6637579450113,43.2234505799167));
#197=CARTESIAN_POINT('Ctrl Pts',(10.6855805751712,-21.4372605802292,43.8446846076543));
#198=CARTESIAN_POINT('Ctrl Pts',(12.0851051359818,-20.6782332669628,44.2126866512546));
#199=CARTESIAN_POINT('Ctrl Pts',(14.668254726817,-18.9336050651771,44.9874381465753));
#200=CARTESIAN_POINT('Ctrl Pts',(15.8519389190509,-17.9477652216661,45.393452055527));
#201=CARTESIAN_POINT('Ctrl Pts',(17.9451657229089,-15.8545384178081,46.1661693741351));
#202=CARTESIAN_POINT('Ctrl Pts',(18.9306387853297,-14.6721378551512,46.5614958529461));
#203=CARTESIAN_POINT('Ctrl Pts',(20.6763188224815,-12.0884471357089,47.2981391929402));
#204=CARTESIAN_POINT('Ctrl Pts',(21.4366618484806,-10.6870858827564,47.6388841625126));
#205=CARTESIAN_POINT('Ctrl Pts',(22.6646993353889,-7.74956082237699,48.2039562496439));
#206=CARTESIAN_POINT('Ctrl Pts',(23.1333741553756,-6.21061436038958,48.4283988222577));
#207=CARTESIAN_POINT('Ctrl Pts',(23.7511285163965,-3.09977817809136,48.7265114539574));
#208=CARTESIAN_POINT('Ctrl Pts',(23.9,-1.52782975337273,48.8));
#209=CARTESIAN_POINT('Ctrl Pts',(23.9,1.52782975337273,48.8));
#210=CARTESIAN_POINT('Ctrl Pts',(23.7511285163965,3.09977817809136,48.7265114539574));
#211=CARTESIAN_POINT('Ctrl Pts',(23.1333741553756,6.21061436038958,48.4283988222577));
#212=CARTESIAN_POINT('Ctrl Pts',(22.6646993353889,7.74956082237699,48.2039562496439));
#213=CARTESIAN_POINT('Ctrl Pts',(21.4366618484806,10.6870858827564,47.6388841625126));
#214=CARTESIAN_POINT('Ctrl Pts',(20.6763188224815,12.0884471357089,47.2981391929402));
#215=CARTESIAN_POINT('Ctrl Pts',(18.9306387853297,14.6721378551512,46.5614958529461));
#216=CARTESIAN_POINT('Ctrl Pts',(17.9451657229089,15.8545384178081,46.1661693741351));
#217=CARTESIAN_POINT('Ctrl Pts',(15.8519389190509,17.9477652216661,45.393452055527));
#218=CARTESIAN_POINT('Ctrl Pts',(14.668254726817,18.9336050651771,44.9874381465752));
#219=CARTESIAN_POINT('Ctrl Pts',(12.0851051359818,20.6782332669628,44.2126866512546));
#220=CARTESIAN_POINT('Ctrl Pts',(10.6855805751712,21.4372605802292,43.8446846076543));
#221=CARTESIAN_POINT('Ctrl Pts',(7.75188576480438,22.6637579450113,43.2234505799167));
#222=CARTESIAN_POINT('Ctrl Pts',(6.21488957201033,23.1322036241332,42.9705175027723));
#223=CARTESIAN_POINT('Ctrl Pts',(3.10481570236917,23.7504487496255,42.6319176635318));
#224=CARTESIAN_POINT('Ctrl Pts',(1.53162917906224,23.9,42.5467977643441));
#225=CARTESIAN_POINT('Ctrl Pts',(-1.53162917906224,23.9,42.5467977643441));
#226=CARTESIAN_POINT('Ctrl Pts',(-3.10481570236918,23.7504487496255,42.6319176635318));
#227=CARTESIAN_POINT('Ctrl Pts',(-6.21488957201033,23.1322036241332,42.9705175027723));
#228=CARTESIAN_POINT('Ctrl Pts',(-7.75188576480438,22.6637579450113,43.2234505799167));
#229=CARTESIAN_POINT('Ctrl Pts',(-10.6855805751712,21.4372605802292,43.8446846076543));
#230=CARTESIAN_POINT('Ctrl Pts',(-12.0851051359818,20.6782332669628,44.2126866512546));
#231=CARTESIAN_POINT('Ctrl Pts',(-14.668254726817,18.9336050651771,44.9874381465752));
#232=CARTESIAN_POINT('Ctrl Pts',(-15.8519389190509,17.9477652216661,45.393452055527));
#233=CARTESIAN_POINT('Ctrl Pts',(-17.9451657229089,15.8545384178081,46.1661693741351));
#234=CARTESIAN_POINT('Ctrl Pts',(-18.9306387853297,14.6721378551512,46.5614958529461));
#235=CARTESIAN_POINT('Ctrl Pts',(-20.6763188224815,12.0884471357089,47.2981391929402));
#236=CARTESIAN_POINT('Ctrl Pts',(-21.4366618484806,10.6870858827564,47.6388841625126));
#237=CARTESIAN_POINT('Ctrl Pts',(-22.6646993353889,7.749560822377,48.2039562496439));
#238=CARTESIAN_POINT('Ctrl Pts',(-23.1333741553756,6.21061436038959,48.4283988222577));
#239=CARTESIAN_POINT('Ctrl Pts',(-23.7511285163965,3.09977817809137,48.7265114539574));
#240=CARTESIAN_POINT('Ctrl Pts',(-23.9,1.52782975337274,48.8));
#241=CARTESIAN_POINT('Ctrl Pts',(-23.9,3.60822483003176E-15,48.8));
#242=CARTESIAN_POINT('Ctrl Pts',(-23.9,2.22044604925031E-15,48.8));
#243=CARTESIAN_POINT('Ctrl Pts',(-23.9,-1.52782975337273,48.8));
#244=CARTESIAN_POINT('Ctrl Pts',(-23.7511285163965,-3.09977817809137,48.7265114539574));
#245=CARTESIAN_POINT('Ctrl Pts',(-23.1333741553756,-6.21061436038958,48.4283988222577));
#246=CARTESIAN_POINT('Ctrl Pts',(-22.6646993353889,-7.749560822377,48.2039562496439));
#247=CARTESIAN_POINT('Ctrl Pts',(-21.4366618484806,-10.6870858827564,47.6388841625126));
#248=CARTESIAN_POINT('Ctrl Pts',(-20.6763188224815,-12.0884471357089,47.2981391929402));
#249=CARTESIAN_POINT('Ctrl Pts',(-18.9306387853297,-14.6721378551512,46.5614958529461));
#250=CARTESIAN_POINT('Ctrl Pts',(-17.9451657229089,-15.8545384178081,46.1661693741351));
#251=CARTESIAN_POINT('Ctrl Pts',(-15.8519389190509,-17.9477652216661,45.393452055527));
#252=CARTESIAN_POINT('Ctrl Pts',(-14.668254726817,-18.9336050651771,44.9874381465752));
#253=CARTESIAN_POINT('Ctrl Pts',(-12.0851051359818,-20.6782332669628,44.2126866512546));
#254=CARTESIAN_POINT('Ctrl Pts',(-10.6855805751712,-21.4372605802292,43.8446846076543));
#255=CARTESIAN_POINT('Ctrl Pts',(-7.75188576480437,-22.6637579450113,43.2234505799167));
#256=CARTESIAN_POINT('Ctrl Pts',(-6.21488957201033,-23.1322036241332,42.9705175027723));
#257=CARTESIAN_POINT('Ctrl Pts',(-3.10481570236917,-23.7504487496255,42.6319176635318));
#258=CARTESIAN_POINT('Ctrl Pts',(-1.53162917906223,-23.9,42.5467977643441));
#259=CARTESIAN_POINT('Ctrl Pts',(5.55111512312578E-16,-23.9,42.5467977643441));
#260=CARTESIAN_POINT('',(-23.9,2.92690584996217E-15,133.4));
#261=CARTESIAN_POINT('',(-23.9,-2.92690584996217E-15,0.));
#262=CARTESIAN_POINT('Origin',(0.,0.,133.4));
#263=CARTESIAN_POINT('Origin',(0.,0.,0.));
#264=CARTESIAN_POINT('',(-133.4,-48.8,-5.97627637983908E-15));
#265=CARTESIAN_POINT('Origin',(-133.4,0.,0.));
#266=CARTESIAN_POINT('',(133.4,-48.8,5.97627637983908E-15));
#267=CARTESIAN_POINT('',(0.,-48.8,-5.97627637983908E-15));
#268=CARTESIAN_POINT('Origin',(133.4,0.,0.));
#269=CARTESIAN_POINT('Origin',(0.,0.,0.));
#270=CARTESIAN_POINT('',(-25.4,-3.11060286983428E-15,133.4));
#271=CARTESIAN_POINT('Origin',(0.,0.,133.4));
#272=CARTESIAN_POINT('',(-25.4,-3.35941384993302E-15,50.8));
#273=CARTESIAN_POINT('',(-25.4,-3.11060286983428E-15,0.));
#274=CARTESIAN_POINT('',(-5.55111512312578E-16,-25.4,43.9940905122495));
#275=CARTESIAN_POINT('Ctrl Pts',(-5.55111512312578E-16,-25.4,43.9940905122495));
#276=CARTESIAN_POINT('Ctrl Pts',(-1.62947435039824,-25.4,43.9940905122495));
#277=CARTESIAN_POINT('Ctrl Pts',(-3.30249095983238,-25.2407346048675,44.0872737920202));
#278=CARTESIAN_POINT('Ctrl Pts',(-6.60883641120019,-24.5830106351706,44.4573726314411));
#279=CARTESIAN_POINT('Ctrl Pts',(-8.24228833694025,-24.0848226911073,44.7336692340287));
#280=CARTESIAN_POINT('Ctrl Pts',(-11.3594240666459,-22.7810803819025,45.4114755556771));
#281=CARTESIAN_POINT('Ctrl Pts',(-12.8461326289198,-21.9744878887894,45.8126492418446));
#282=CARTESIAN_POINT('Ctrl Pts',(-15.5900721366385,-20.1209068537622,46.6564685298134));
#283=CARTESIAN_POINT('Ctrl Pts',(-16.8473693459433,-19.0736551383333,47.0983203438848));
#284=CARTESIAN_POINT('Ctrl Pts',(-19.0706206566679,-16.8504038276087,47.9386303539099));
#285=CARTESIAN_POINT('Ctrl Pts',(-20.1174386600767,-15.5946105508823,48.3682894534202));
#286=CARTESIAN_POINT('Ctrl Pts',(-21.9722390207931,-12.8500556050157,49.1686828559533));
#287=CARTESIAN_POINT('Ctrl Pts',(-22.7803655748322,-11.3612126714331,49.5388042208287));
#288=CARTESIAN_POINT('Ctrl Pts',(-24.085910664328,-8.23960750208897,50.1525587376807));
#289=CARTESIAN_POINT('Ctrl Pts',(-24.5843722792435,-6.60386920209999,50.39632537489));
#290=CARTESIAN_POINT('Ctrl Pts',(-25.2415290383784,-3.29661350767775,50.7201443128586));
#291=CARTESIAN_POINT('Ctrl Pts',(-25.4,-1.62503232408035,50.8));
#292=CARTESIAN_POINT('Ctrl Pts',(-25.4,-5.55111512312578E-16,50.8));
#293=CARTESIAN_POINT('Ctrl Pts',(-25.4,-4.16333634234434E-15,50.8));
#294=CARTESIAN_POINT('Ctrl Pts',(-25.4,1.62503232408035,50.8));
#295=CARTESIAN_POINT('Ctrl Pts',(-25.2415290383784,3.29661350767775,50.7201443128586));
#296=CARTESIAN_POINT('Ctrl Pts',(-24.5843722792435,6.60386920209999,50.39632537489));
#297=CARTESIAN_POINT('Ctrl Pts',(-24.085910664328,8.23960750208897,50.1525587376807));
#298=CARTESIAN_POINT('Ctrl Pts',(-22.7803655748322,11.3612126714331,49.5388042208287));
#299=CARTESIAN_POINT('Ctrl Pts',(-21.9722390207931,12.8500556050157,49.1686828559533));
#300=CARTESIAN_POINT('Ctrl Pts',(-20.1174386600767,15.5946105508823,48.3682894534202));
#301=CARTESIAN_POINT('Ctrl Pts',(-19.0706206566679,16.8504038276087,47.9386303539099));
#302=CARTESIAN_POINT('Ctrl Pts',(-16.8473693459433,19.0736551383333,47.0983203438848));
#303=CARTESIAN_POINT('Ctrl Pts',(-15.5900721366385,20.1209068537622,46.6564685298134));
#304=CARTESIAN_POINT('Ctrl Pts',(-12.8461326289198,21.9744878887894,45.8126492418446));
#305=CARTESIAN_POINT('Ctrl Pts',(-11.3594240666459,22.7810803819025,45.4114755556771));
#306=CARTESIAN_POINT('Ctrl Pts',(-8.24228833694026,24.0848226911073,44.7336692340287));
#307=CARTESIAN_POINT('Ctrl Pts',(-6.6088364112002,24.5830106351706,44.4573726314411));
#308=CARTESIAN_POINT('Ctrl Pts',(-3.30249095983238,25.2407346048675,44.0872737920202));
#309=CARTESIAN_POINT('Ctrl Pts',(-1.62947435039824,25.4,43.9940905122495));
#310=CARTESIAN_POINT('Ctrl Pts',(1.62947435039824,25.4,43.9940905122495));
#311=CARTESIAN_POINT('Ctrl Pts',(3.30249095983238,25.2407346048675,44.0872737920202));
#312=CARTESIAN_POINT('Ctrl Pts',(6.6088364112002,24.5830106351706,44.4573726314411));
#313=CARTESIAN_POINT('Ctrl Pts',(8.24228833694026,24.0848226911073,44.7336692340287));
#314=CARTESIAN_POINT('Ctrl Pts',(11.3594240666459,22.7810803819025,45.4114755556771));
#315=CARTESIAN_POINT('Ctrl Pts',(12.8461326289198,21.9744878887894,45.8126492418446));
#316=CARTESIAN_POINT('Ctrl Pts',(15.5900721366385,20.1209068537622,46.6564685298134));
#317=CARTESIAN_POINT('Ctrl Pts',(16.8473693459433,19.0736551383333,47.0983203438848));
#318=CARTESIAN_POINT('Ctrl Pts',(19.0706206566679,16.8504038276087,47.9386303539098));
#319=CARTESIAN_POINT('Ctrl Pts',(20.1174386600767,15.5946105508823,48.3682894534202));
#320=CARTESIAN_POINT('Ctrl Pts',(21.9722390207931,12.8500556050158,49.1686828559533));
#321=CARTESIAN_POINT('Ctrl Pts',(22.7803655748322,11.3612126714331,49.5388042208287));
#322=CARTESIAN_POINT('Ctrl Pts',(24.085910664328,8.23960750208899,50.1525587376806));
#323=CARTESIAN_POINT('Ctrl Pts',(24.5843722792435,6.60386920210001,50.39632537489));
#324=CARTESIAN_POINT('Ctrl Pts',(25.2415290383784,3.29661350767776,50.7201443128586));
#325=CARTESIAN_POINT('Ctrl Pts',(25.4,1.62503232408036,50.8));
#326=CARTESIAN_POINT('Ctrl Pts',(25.4,-1.62503232408034,50.8));
#327=CARTESIAN_POINT('Ctrl Pts',(25.2415290383784,-3.29661350767775,50.7201443128586));
#328=CARTESIAN_POINT('Ctrl Pts',(24.5843722792435,-6.60386920209999,50.39632537489));
#329=CARTESIAN_POINT('Ctrl Pts',(24.085910664328,-8.23960750208898,50.1525587376807));
#330=CARTESIAN_POINT('Ctrl Pts',(22.7803655748322,-11.3612126714331,49.5388042208287));
#331=CARTESIAN_POINT('Ctrl Pts',(21.9722390207931,-12.8500556050157,49.1686828559533));
#332=CARTESIAN_POINT('Ctrl Pts',(20.1174386600767,-15.5946105508823,48.3682894534202));
#333=CARTESIAN_POINT('Ctrl Pts',(19.0706206566679,-16.8504038276087,47.9386303539099));
#334=CARTESIAN_POINT('Ctrl Pts',(16.8473693459433,-19.0736551383333,47.0983203438848));
#335=CARTESIAN_POINT('Ctrl Pts',(15.5900721366385,-20.1209068537622,46.6564685298134));
#336=CARTESIAN_POINT('Ctrl Pts',(12.8461326289198,-21.9744878887894,45.8126492418446));
#337=CARTESIAN_POINT('Ctrl Pts',(11.3594240666459,-22.7810803819025,45.4114755556771));
#338=CARTESIAN_POINT('Ctrl Pts',(8.24228833694026,-24.0848226911073,44.7336692340287));
#339=CARTESIAN_POINT('Ctrl Pts',(6.6088364112002,-24.5830106351706,44.4573726314411));
#340=CARTESIAN_POINT('Ctrl Pts',(3.30249095983238,-25.2407346048675,44.0872737920202));
#341=CARTESIAN_POINT('Ctrl Pts',(1.62947435039824,-25.4,43.9940905122495));
#342=CARTESIAN_POINT('Ctrl Pts',(-5.55111512312578E-16,-25.4,43.9940905122495));
#343=CARTESIAN_POINT('Origin',(0.,0.,133.4));
#344=CARTESIAN_POINT('Origin',(-133.4,0.,0.));
#345=CARTESIAN_POINT('',(-133.4,-50.8,-6.22120573966855E-15));
#346=CARTESIAN_POINT('Origin',(-133.4,0.,0.));
#347=CARTESIAN_POINT('Origin',(0.,0.,0.));
#348=CARTESIAN_POINT('',(133.4,-50.8,-6.22120573966855E-15));
#349=CARTESIAN_POINT('Origin',(133.4,0.,0.));
#350=CARTESIAN_POINT('',(0.,-50.8,-6.22120573966855E-15));
#351=CARTESIAN_POINT('Origin',(133.4,0.,0.));
#352=UNCERTAINTY_MEASURE_WITH_UNIT(LENGTH_MEASURE(0.01),#356,
'DISTANCE_ACCURACY_VALUE',
'Maximum model space distance between geometric entities at asserted c
onnectivities');
#353=UNCERTAINTY_MEASURE_WITH_UNIT(LENGTH_MEASURE(0.01),#356,
'DISTANCE_ACCURACY_VALUE',
'Maximum model space distance between geometric entities at asserted c
onnectivities');
#354=(
GEOMETRIC_REPRESENTATION_CONTEXT(3)
GLOBAL_UNCERTAINTY_ASSIGNED_CONTEXT((#352))
GLOBAL_UNIT_ASSIGNED_CONTEXT((#356,#358,#359))
REPRESENTATION_CONTEXT('','3D')
);
#355=(
GEOMETRIC_REPRESENTATION_CONTEXT(3)
GLOBAL_UNCERTAINTY_ASSIGNED_CONTEXT((#353))
GLOBAL_UNIT_ASSIGNED_CONTEXT((#356,#358,#359))
REPRESENTATION_CONTEXT('','3D')
);
#356=(
LENGTH_UNIT()
NAMED_UNIT(*)
SI_UNIT(.MILLI.,.METRE.)
);
#357=(
LENGTH_UNIT()
NAMED_UNIT(*)
SI_UNIT(.CENTI.,.METRE.)
);
#358=(
NAMED_UNIT(*)
PLANE_ANGLE_UNIT()
SI_UNIT($,.RADIAN.)
);
#359=(
NAMED_UNIT(*)
SI_UNIT($,.STERADIAN.)
SOLID_ANGLE_UNIT()
);
#360=SHAPE_DEFINITION_REPRESENTATION(#361,#362);
#361=PRODUCT_DEFINITION_SHAPE('',$,#364);
#362=SHAPE_REPRESENTATION('',(#142),#354);
#363=PRODUCT_DEFINITION_CONTEXT('part definition',#368,'design');
#364=PRODUCT_DEFINITION('D8(R) 40\X\D720','D8(R) 40\X\D720',#365,#363);
#365=PRODUCT_DEFINITION_FORMATION('',$,#370);
#366=PRODUCT_RELATED_PRODUCT_CATEGORY('D8(R) 40\X\D720','D8(R) 40\X\D7
20',(#370));
#367=APPLICATION_PROTOCOL_DEFINITION('international standard',
'automotive_design',2009,#368);
#368=APPLICATION_CONTEXT(
'Core Data for Automotive Mechanical Design Process');
#369=PRODUCT_CONTEXT('part definition',#368,'mechanical');
#370=PRODUCT('D8(R) 40\X\D720','D8(R) 40\X\D720',$,(#369));
#371=PRESENTATION_STYLE_ASSIGNMENT((#372));
#372=SURFACE_STYLE_USAGE(.BOTH.,#375);
#373=SURFACE_STYLE_RENDERING_WITH_PROPERTIES($,#379,(#374));
#374=SURFACE_STYLE_TRANSPARENT(0.);
#375=SURFACE_SIDE_STYLE('',(#376,#373));
#376=SURFACE_STYLE_FILL_AREA(#377);
#377=FILL_AREA_STYLE('',(#378));
#378=FILL_AREA_STYLE_COLOUR('',#379);
#379=COLOUR_RGB('',0.749019607843137,0.749019607843137,0.749019607843137);
ENDSEC;
END-ISO-10303-21;
