ISO-10303-21;
HEADER;
/* Generated by software containing ST-Developer
 * from STEP Tools, Inc. (www.steptools.com) 
 */

FILE_DESCRIPTION(
/* description */ (''),
/* implementation_level */ '2;1');

FILE_NAME(
/* name */ 
'\\\\Tske00\\w\\Work\\TOSTE\\\X2\7D99624B\X0\\\02_\X2\6EB663A5\X0\\\\X2\6EB663A5752830C130FC30BA\X0\\\
D8(R)\\D8(R) 04\X\D703.stp',
/* time_stamp */ '2022-04-12T17:07:41+09:00',
/* author */ ('3dcad-eng'),
/* organization */ (''),
/* preprocessor_version */ 'ST-DEVELOPER v18.1',
/* originating_system */ 'Autodesk Inventor 2022',
/* authorisation */ '');

FILE_SCHEMA (('AUTOMOTIVE_DESIGN { 1 0 10303 214 3 1 1 }'));
ENDSEC;

DATA;
#10=MECHANICAL_DESIGN_GEOMETRIC_PRESENTATION_REPRESENTATION('',(#13),#315);
#11=SHAPE_REPRESENTATION_RELATIONSHIP('SRR','None',#322,#12);
#12=ADVANCED_BREP_SHAPE_REPRESENTATION('',(#14),#314);
#13=STYLED_ITEM('',(#331),#14);
#14=MANIFOLD_SOLID_BREP('\X2\30BD30EA30C330C9\X0\1',#123);
#15=FACE_BOUND('',#33,.T.);
#16=FACE_BOUND('',#35,.T.);
#17=FACE_BOUND('',#37,.T.);
#18=FACE_BOUND('',#39,.T.);
#19=FACE_BOUND('',#41,.T.);
#20=PLANE('',#147);
#21=PLANE('',#151);
#22=PLANE('',#155);
#23=FACE_OUTER_BOUND('',#30,.T.);
#24=FACE_OUTER_BOUND('',#31,.T.);
#25=FACE_OUTER_BOUND('',#32,.T.);
#26=FACE_OUTER_BOUND('',#34,.T.);
#27=FACE_OUTER_BOUND('',#36,.T.);
#28=FACE_OUTER_BOUND('',#38,.T.);
#29=FACE_OUTER_BOUND('',#40,.T.);
#30=EDGE_LOOP('',(#84,#85,#86,#87,#88));
#31=EDGE_LOOP('',(#89,#90,#91,#92,#93));
#32=EDGE_LOOP('',(#94));
#33=EDGE_LOOP('',(#95));
#34=EDGE_LOOP('',(#96,#97,#98,#99));
#35=EDGE_LOOP('',(#100,#101));
#36=EDGE_LOOP('',(#102));
#37=EDGE_LOOP('',(#103));
#38=EDGE_LOOP('',(#104,#105,#106,#107));
#39=EDGE_LOOP('',(#108,#109));
#40=EDGE_LOOP('',(#110));
#41=EDGE_LOOP('',(#111));
#42=B_SPLINE_CURVE_WITH_KNOTS('',3,(#195,#196,#197,#198,#199,#200,#201,
#202,#203,#204,#205,#206),.UNSPECIFIED.,.F.,.F.,(4,2,2,2,2,4),(0.,0.141500889292174,
0.283001778584348,0.566003557168696,0.842528395780829,1.11905323439296),
 .UNSPECIFIED.);
#43=B_SPLINE_CURVE_WITH_KNOTS('',3,(#207,#208,#209,#210,#211,#212,#213,
#214,#215,#216,#217,#218,#219,#220,#221,#222,#223,#224,#225,#226,#227,#228,
#229,#230,#231,#232,#233,#234,#235,#236,#237,#238),.UNSPECIFIED.,.F.,.F.,
(4,2,2,2,2,2,2,2,2,2,2,2,2,2,2,4),(1.11905323439296,1.39557807300509,1.67210291161723,
1.95510469020158,2.09660557949375,2.23810646878592,2.3796073580781,2.52110824737027,
2.80411002595462,3.08063486456675,3.35715970317888,3.63368454179102,3.91020938040315,
4.1932111589875,4.33471204827967,4.47621293757185),.UNSPECIFIED.);
#44=B_SPLINE_CURVE_WITH_KNOTS('',3,(#245,#246,#247,#248,#249,#250,#251,
#252,#253,#254,#255,#256,#257,#258),.UNSPECIFIED.,.F.,.F.,(4,2,2,2,2,2,
4),(0.,0.215530289795494,0.431060579590987,0.684701708229913,0.938342836868838,
1.15314291533888,1.36794299380892),.UNSPECIFIED.);
#45=B_SPLINE_CURVE_WITH_KNOTS('',3,(#259,#260,#261,#262,#263,#264,#265,
#266,#267,#268,#269,#270,#271,#272,#273,#274,#275,#276,#277,#278,#279,#280,
#281,#282,#283,#284,#285,#286,#287,#288,#289,#290,#291,#292,#293,#294,#295,
#296),.UNSPECIFIED.,.F.,.F.,(4,2,2,2,2,2,2,2,2,2,2,2,2,2,2,2,2,2,4),(1.36794299380892,
1.58274307227896,1.797543150749,2.05118427938792,2.30482540802685,2.52035569782234,
2.73588598761784,2.95141627741333,3.16694656720882,3.42058769584775,3.67422882448667,
3.88902890295671,4.10382898142675,4.31862905989679,4.53342913836683,4.78707026700576,
5.04071139564468,5.25624168544018,5.47177197523567),.UNSPECIFIED.);
#46=LINE('',#193,#50);
#47=LINE('',#243,#51);
#48=LINE('',#302,#52);
#49=LINE('',#310,#53);
#50=VECTOR('',#162,7.);
#51=VECTOR('',#167,8.65);
#52=VECTOR('',#174,10.85);
#53=VECTOR('',#185,9.2);
#54=CIRCLE('',#144,7.);
#55=CIRCLE('',#146,8.65);
#56=CIRCLE('',#149,10.85);
#57=CIRCLE('',#150,10.85);
#58=CIRCLE('',#152,9.2);
#59=CIRCLE('',#154,9.2);
#60=VERTEX_POINT('',#190);
#61=VERTEX_POINT('',#192);
#62=VERTEX_POINT('',#194);
#63=VERTEX_POINT('',#240);
#64=VERTEX_POINT('',#242);
#65=VERTEX_POINT('',#244);
#66=VERTEX_POINT('',#299);
#67=VERTEX_POINT('',#301);
#68=VERTEX_POINT('',#305);
#69=VERTEX_POINT('',#308);
#70=EDGE_CURVE('',#60,#60,#54,.T.);
#71=EDGE_CURVE('',#60,#61,#46,.T.);
#72=EDGE_CURVE('',#62,#61,#42,.T.);
#73=EDGE_CURVE('',#61,#62,#43,.T.);
#74=EDGE_CURVE('',#63,#63,#55,.T.);
#75=EDGE_CURVE('',#63,#64,#47,.T.);
#76=EDGE_CURVE('',#65,#64,#44,.T.);
#77=EDGE_CURVE('',#64,#65,#45,.T.);
#78=EDGE_CURVE('',#66,#66,#56,.T.);
#79=EDGE_CURVE('',#66,#67,#48,.T.);
#80=EDGE_CURVE('',#67,#67,#57,.T.);
#81=EDGE_CURVE('',#68,#68,#58,.T.);
#82=EDGE_CURVE('',#69,#69,#59,.T.);
#83=EDGE_CURVE('',#69,#68,#49,.T.);
#84=ORIENTED_EDGE('',*,*,#70,.F.);
#85=ORIENTED_EDGE('',*,*,#71,.T.);
#86=ORIENTED_EDGE('',*,*,#72,.F.);
#87=ORIENTED_EDGE('',*,*,#73,.F.);
#88=ORIENTED_EDGE('',*,*,#71,.F.);
#89=ORIENTED_EDGE('',*,*,#74,.F.);
#90=ORIENTED_EDGE('',*,*,#75,.T.);
#91=ORIENTED_EDGE('',*,*,#76,.F.);
#92=ORIENTED_EDGE('',*,*,#77,.F.);
#93=ORIENTED_EDGE('',*,*,#75,.F.);
#94=ORIENTED_EDGE('',*,*,#74,.T.);
#95=ORIENTED_EDGE('',*,*,#70,.T.);
#96=ORIENTED_EDGE('',*,*,#78,.F.);
#97=ORIENTED_EDGE('',*,*,#79,.T.);
#98=ORIENTED_EDGE('',*,*,#80,.F.);
#99=ORIENTED_EDGE('',*,*,#79,.F.);
#100=ORIENTED_EDGE('',*,*,#76,.T.);
#101=ORIENTED_EDGE('',*,*,#77,.T.);
#102=ORIENTED_EDGE('',*,*,#80,.T.);
#103=ORIENTED_EDGE('',*,*,#81,.T.);
#104=ORIENTED_EDGE('',*,*,#82,.F.);
#105=ORIENTED_EDGE('',*,*,#83,.T.);
#106=ORIENTED_EDGE('',*,*,#81,.F.);
#107=ORIENTED_EDGE('',*,*,#83,.F.);
#108=ORIENTED_EDGE('',*,*,#72,.T.);
#109=ORIENTED_EDGE('',*,*,#73,.T.);
#110=ORIENTED_EDGE('',*,*,#78,.T.);
#111=ORIENTED_EDGE('',*,*,#82,.T.);
#112=CYLINDRICAL_SURFACE('',#143,7.);
#113=CYLINDRICAL_SURFACE('',#145,8.65);
#114=CYLINDRICAL_SURFACE('',#148,10.85);
#115=CYLINDRICAL_SURFACE('',#153,9.2);
#116=ADVANCED_FACE('',(#23),#112,.F.);
#117=ADVANCED_FACE('',(#24),#113,.T.);
#118=ADVANCED_FACE('',(#25,#15),#20,.T.);
#119=ADVANCED_FACE('',(#26,#16),#114,.T.);
#120=ADVANCED_FACE('',(#27,#17),#21,.F.);
#121=ADVANCED_FACE('',(#28,#18),#115,.F.);
#122=ADVANCED_FACE('',(#29,#19),#22,.T.);
#123=CLOSED_SHELL('',(#116,#117,#118,#119,#120,#121,#122));
#124=DERIVED_UNIT_ELEMENT(#126,1.);
#125=DERIVED_UNIT_ELEMENT(#317,-3.);
#126=(
MASS_UNIT()
NAMED_UNIT(*)
SI_UNIT($,.GRAM.)
);
#127=DERIVED_UNIT((#124,#125));
#128=MEASURE_REPRESENTATION_ITEM('density measure',
POSITIVE_RATIO_MEASURE(1.),#127);
#129=PROPERTY_DEFINITION_REPRESENTATION(#134,#131);
#130=PROPERTY_DEFINITION_REPRESENTATION(#135,#132);
#131=REPRESENTATION('material name',(#133),#314);
#132=REPRESENTATION('density',(#128),#314);
#133=DESCRIPTIVE_REPRESENTATION_ITEM('\X2\4E00822C\X0\','\X2\4E00822C\X0\');
#134=PROPERTY_DEFINITION('material property','material name',#324);
#135=PROPERTY_DEFINITION('material property','density of part',#324);
#136=DATE_TIME_ROLE('creation_date');
#137=APPLIED_DATE_AND_TIME_ASSIGNMENT(#138,#136,(#324));
#138=DATE_AND_TIME(#139,#140);
#139=CALENDAR_DATE(2022,30,3);
#140=LOCAL_TIME(0,0,0.,#141);
#141=COORDINATED_UNIVERSAL_TIME_OFFSET(0,0,.BEHIND.);
#142=AXIS2_PLACEMENT_3D('placement',#188,#156,#157);
#143=AXIS2_PLACEMENT_3D('',#189,#158,#159);
#144=AXIS2_PLACEMENT_3D('',#191,#160,#161);
#145=AXIS2_PLACEMENT_3D('',#239,#163,#164);
#146=AXIS2_PLACEMENT_3D('',#241,#165,#166);
#147=AXIS2_PLACEMENT_3D('',#297,#168,#169);
#148=AXIS2_PLACEMENT_3D('',#298,#170,#171);
#149=AXIS2_PLACEMENT_3D('',#300,#172,#173);
#150=AXIS2_PLACEMENT_3D('',#303,#175,#176);
#151=AXIS2_PLACEMENT_3D('',#304,#177,#178);
#152=AXIS2_PLACEMENT_3D('',#306,#179,#180);
#153=AXIS2_PLACEMENT_3D('',#307,#181,#182);
#154=AXIS2_PLACEMENT_3D('',#309,#183,#184);
#155=AXIS2_PLACEMENT_3D('',#311,#186,#187);
#156=DIRECTION('axis',(0.,0.,1.));
#157=DIRECTION('refdir',(1.,0.,0.));
#158=DIRECTION('center_axis',(0.,0.,1.));
#159=DIRECTION('ref_axis',(-1.,0.,0.));
#160=DIRECTION('center_axis',(0.,0.,-1.));
#161=DIRECTION('ref_axis',(-1.,0.,0.));
#162=DIRECTION('',(0.,0.,-1.));
#163=DIRECTION('center_axis',(0.,0.,1.));
#164=DIRECTION('ref_axis',(1.,0.,0.));
#165=DIRECTION('center_axis',(0.,0.,1.));
#166=DIRECTION('ref_axis',(1.,0.,0.));
#167=DIRECTION('',(0.,0.,-1.));
#168=DIRECTION('center_axis',(0.,0.,1.));
#169=DIRECTION('ref_axis',(1.,0.,0.));
#170=DIRECTION('center_axis',(1.,0.,0.));
#171=DIRECTION('ref_axis',(0.,1.,0.));
#172=DIRECTION('center_axis',(1.,0.,0.));
#173=DIRECTION('ref_axis',(0.,1.,0.));
#174=DIRECTION('',(-1.,0.,0.));
#175=DIRECTION('center_axis',(-1.,0.,0.));
#176=DIRECTION('ref_axis',(0.,1.,0.));
#177=DIRECTION('center_axis',(1.,0.,0.));
#178=DIRECTION('ref_axis',(0.,0.,-1.));
#179=DIRECTION('center_axis',(1.,0.,0.));
#180=DIRECTION('ref_axis',(0.,-1.,0.));
#181=DIRECTION('center_axis',(1.,0.,0.));
#182=DIRECTION('ref_axis',(0.,-1.,0.));
#183=DIRECTION('center_axis',(-1.,0.,0.));
#184=DIRECTION('ref_axis',(0.,-1.,0.));
#185=DIRECTION('',(-1.,0.,0.));
#186=DIRECTION('center_axis',(1.,0.,0.));
#187=DIRECTION('ref_axis',(0.,0.,-1.));
#188=CARTESIAN_POINT('',(0.,0.,0.));
#189=CARTESIAN_POINT('Origin',(0.,0.,0.));
#190=CARTESIAN_POINT('',(7.,8.57252759403147E-16,38.1));
#191=CARTESIAN_POINT('Origin',(0.,0.,38.1));
#192=CARTESIAN_POINT('',(7.,1.26129364817044E-15,9.2));
#193=CARTESIAN_POINT('',(7.,8.57252759403147E-16,0.));
#194=CARTESIAN_POINT('',(0.,-7.,5.96992462263972));
#195=CARTESIAN_POINT('Ctrl Pts',(0.,-7.,5.96992462263972));
#196=CARTESIAN_POINT('Ctrl Pts',(0.471669630973913,-7.,5.96992462263972));
#197=CARTESIAN_POINT('Ctrl Pts',(0.944043658834189,-6.95189037023668,6.02753059948828));
#198=CARTESIAN_POINT('Ctrl Pts',(1.86307260804862,-6.76379766442648,6.23786387993221));
#199=CARTESIAN_POINT('Ctrl Pts',(2.30997029059551,-6.62391872291021,6.38962238913282));
#200=CARTESIAN_POINT('Ctrl Pts',(3.58235001025804,-6.08406440199544,6.91942449015894));
#201=CARTESIAN_POINT('Ctrl Pts',(4.34175900859488,-5.55773592801678,7.36694036560783));
#202=CARTESIAN_POINT('Ctrl Pts',(5.54382115766783,-4.35567377894384,8.13417509362817));
#203=CARTESIAN_POINT('Ctrl Pts',(6.07833247017633,-3.59484552681251,8.51614691124516));
#204=CARTESIAN_POINT('Ctrl Pts',(6.80728557396205,-1.87880477445634,9.05084350770316));
#205=CARTESIAN_POINT('Ctrl Pts',(7.,-0.921749462040442,9.2));
#206=CARTESIAN_POINT('Ctrl Pts',(7.,1.66533453693773E-15,9.2));
#207=CARTESIAN_POINT('Ctrl Pts',(7.,1.66533453693773E-15,9.2));
#208=CARTESIAN_POINT('Ctrl Pts',(7.,0.921749462040445,9.2));
#209=CARTESIAN_POINT('Ctrl Pts',(6.80728557396205,1.87880477445635,9.05084350770316));
#210=CARTESIAN_POINT('Ctrl Pts',(6.07833247017633,3.59484552681251,8.51614691124516));
#211=CARTESIAN_POINT('Ctrl Pts',(5.54382115766783,4.35567377894384,8.13417509362816));
#212=CARTESIAN_POINT('Ctrl Pts',(4.34175900859488,5.55773592801678,7.36694036560783));
#213=CARTESIAN_POINT('Ctrl Pts',(3.58235001025804,6.08406440199544,6.91942449015894));
#214=CARTESIAN_POINT('Ctrl Pts',(2.30997029059551,6.62391872291021,6.38962238913282));
#215=CARTESIAN_POINT('Ctrl Pts',(1.86307260804862,6.76379766442648,6.23786387993221));
#216=CARTESIAN_POINT('Ctrl Pts',(0.944043658834189,6.95189037023668,6.02753059948828));
#217=CARTESIAN_POINT('Ctrl Pts',(0.471669630973913,7.,5.96992462263972));
#218=CARTESIAN_POINT('Ctrl Pts',(-0.471669630973913,7.,5.96992462263972));
#219=CARTESIAN_POINT('Ctrl Pts',(-0.944043658834189,6.95189037023668,6.02753059948828));
#220=CARTESIAN_POINT('Ctrl Pts',(-1.86307260804862,6.76379766442648,6.23786387993221));
#221=CARTESIAN_POINT('Ctrl Pts',(-2.30997029059551,6.62391872291021,6.38962238913282));
#222=CARTESIAN_POINT('Ctrl Pts',(-3.58235001025804,6.08406440199544,6.91942449015894));
#223=CARTESIAN_POINT('Ctrl Pts',(-4.34175900859488,5.55773592801678,7.36694036560783));
#224=CARTESIAN_POINT('Ctrl Pts',(-5.54382115766783,4.35567377894384,8.13417509362816));
#225=CARTESIAN_POINT('Ctrl Pts',(-6.07833247017633,3.59484552681251,8.51614691124516));
#226=CARTESIAN_POINT('Ctrl Pts',(-6.80728557396205,1.87880477445635,9.05084350770316));
#227=CARTESIAN_POINT('Ctrl Pts',(-7.,0.921749462040443,9.2));
#228=CARTESIAN_POINT('Ctrl Pts',(-7.,-0.921749462040445,9.2));
#229=CARTESIAN_POINT('Ctrl Pts',(-6.80728557396205,-1.87880477445635,9.05084350770316));
#230=CARTESIAN_POINT('Ctrl Pts',(-6.07833247017633,-3.59484552681251,8.51614691124516));
#231=CARTESIAN_POINT('Ctrl Pts',(-5.54382115766783,-4.35567377894384,8.13417509362816));
#232=CARTESIAN_POINT('Ctrl Pts',(-4.34175900859488,-5.55773592801678,7.36694036560783));
#233=CARTESIAN_POINT('Ctrl Pts',(-3.58235001025804,-6.08406440199544,6.91942449015894));
#234=CARTESIAN_POINT('Ctrl Pts',(-2.30997029059551,-6.62391872291021,6.38962238913282));
#235=CARTESIAN_POINT('Ctrl Pts',(-1.86307260804862,-6.76379766442648,6.23786387993221));
#236=CARTESIAN_POINT('Ctrl Pts',(-0.944043658834188,-6.95189037023668,6.02753059948828));
#237=CARTESIAN_POINT('Ctrl Pts',(-0.471669630973913,-7.,5.96992462263972));
#238=CARTESIAN_POINT('Ctrl Pts',(1.38777878078145E-16,-7.,5.96992462263972));
#239=CARTESIAN_POINT('Origin',(0.,0.,0.));
#240=CARTESIAN_POINT('',(-8.65,-1.05931948126246E-15,38.1));
#241=CARTESIAN_POINT('Origin',(0.,0.,38.1));
#242=CARTESIAN_POINT('',(-8.65,9.9689691822836E-16,10.85));
#243=CARTESIAN_POINT('',(-8.65,-1.05931948126246E-15,0.));
#244=CARTESIAN_POINT('',(6.93889390390723E-17,-8.65,6.54980915752513));
#245=CARTESIAN_POINT('Ctrl Pts',(6.93889390390723E-17,-8.65,6.54980915752513));
#246=CARTESIAN_POINT('Ctrl Pts',(-0.718434299318312,-8.65,6.54980915752513));
#247=CARTESIAN_POINT('Ctrl Pts',(-1.47676393418145,-8.55472788285157,6.68017668051746));
#248=CARTESIAN_POINT('Ctrl Pts',(-2.90087846820608,-8.18224457327166,7.13154851961725));
#249=CARTESIAN_POINT('Ctrl Pts',(-3.56965997846776,-7.90588777413941,7.44375510564279));
#250=CARTESIAN_POINT('Ctrl Pts',(-4.81273159933696,-7.2281380702506,8.10800376607641));
#251=CARTESIAN_POINT('Ctrl Pts',(-5.47913521627981,-6.74386338268015,8.5285067128826));
#252=CARTESIAN_POINT('Ctrl Pts',(-6.65320965237064,-5.58886575519256,9.32629073799501));
#253=CARTESIAN_POINT('Ctrl Pts',(-7.16092490630607,-4.91659073830831,9.70125695754666));
#254=CARTESIAN_POINT('Ctrl Pts',(-7.876378056764,-3.63819006321347,10.2416357323707));
#255=CARTESIAN_POINT('Ctrl Pts',(-8.16754502109561,-2.94698308251024,10.4687407592668));
#256=CARTESIAN_POINT('Ctrl Pts',(-8.5548146216296,-1.4861521488306,10.7736063808363));
#257=CARTESIAN_POINT('Ctrl Pts',(-8.65,-0.716000261566798,10.85));
#258=CARTESIAN_POINT('Ctrl Pts',(-8.65,2.63677968348475E-15,10.85));
#259=CARTESIAN_POINT('Ctrl Pts',(-8.65,2.91433543964104E-15,10.85));
#260=CARTESIAN_POINT('Ctrl Pts',(-8.65,0.716000261566803,10.85));
#261=CARTESIAN_POINT('Ctrl Pts',(-8.5548146216296,1.48615214883061,10.7736063808363));
#262=CARTESIAN_POINT('Ctrl Pts',(-8.16754502109561,2.94698308251025,10.4687407592668));
#263=CARTESIAN_POINT('Ctrl Pts',(-7.876378056764,3.63819006321347,10.2416357323706));
#264=CARTESIAN_POINT('Ctrl Pts',(-7.16092490630607,4.91659073830831,9.70125695754666));
#265=CARTESIAN_POINT('Ctrl Pts',(-6.65320965237064,5.58886575519256,9.32629073799501));
#266=CARTESIAN_POINT('Ctrl Pts',(-5.4791352162798,6.74386338268015,8.5285067128826));
#267=CARTESIAN_POINT('Ctrl Pts',(-4.81273159933696,7.2281380702506,8.10800376607641));
#268=CARTESIAN_POINT('Ctrl Pts',(-3.56965997846776,7.90588777413941,7.44375510564279));
#269=CARTESIAN_POINT('Ctrl Pts',(-2.90087846820607,8.18224457327166,7.13154851961725));
#270=CARTESIAN_POINT('Ctrl Pts',(-1.47676393418145,8.55472788285157,6.68017668051746));
#271=CARTESIAN_POINT('Ctrl Pts',(-0.718434299318312,8.65,6.54980915752512));
#272=CARTESIAN_POINT('Ctrl Pts',(0.718434299318312,8.65,6.54980915752513));
#273=CARTESIAN_POINT('Ctrl Pts',(1.47676393418145,8.55472788285157,6.68017668051746));
#274=CARTESIAN_POINT('Ctrl Pts',(2.90087846820607,8.18224457327166,7.13154851961725));
#275=CARTESIAN_POINT('Ctrl Pts',(3.56965997846776,7.90588777413941,7.44375510564279));
#276=CARTESIAN_POINT('Ctrl Pts',(4.81273159933696,7.2281380702506,8.10800376607641));
#277=CARTESIAN_POINT('Ctrl Pts',(5.47913521627981,6.74386338268015,8.5285067128826));
#278=CARTESIAN_POINT('Ctrl Pts',(6.65320965237064,5.58886575519256,9.32629073799501));
#279=CARTESIAN_POINT('Ctrl Pts',(7.16092490630607,4.91659073830831,9.70125695754666));
#280=CARTESIAN_POINT('Ctrl Pts',(7.876378056764,3.63819006321347,10.2416357323707));
#281=CARTESIAN_POINT('Ctrl Pts',(8.16754502109561,2.94698308251025,10.4687407592668));
#282=CARTESIAN_POINT('Ctrl Pts',(8.5548146216296,1.4861521488306,10.7736063808363));
#283=CARTESIAN_POINT('Ctrl Pts',(8.65,0.716000261566802,10.85));
#284=CARTESIAN_POINT('Ctrl Pts',(8.65,-0.716000261566797,10.85));
#285=CARTESIAN_POINT('Ctrl Pts',(8.5548146216296,-1.4861521488306,10.7736063808363));
#286=CARTESIAN_POINT('Ctrl Pts',(8.16754502109561,-2.94698308251024,10.4687407592668));
#287=CARTESIAN_POINT('Ctrl Pts',(7.876378056764,-3.63819006321347,10.2416357323707));
#288=CARTESIAN_POINT('Ctrl Pts',(7.16092490630607,-4.9165907383083,9.70125695754666));
#289=CARTESIAN_POINT('Ctrl Pts',(6.65320965237065,-5.58886575519256,9.32629073799502));
#290=CARTESIAN_POINT('Ctrl Pts',(5.47913521627981,-6.74386338268015,8.5285067128826));
#291=CARTESIAN_POINT('Ctrl Pts',(4.81273159933696,-7.2281380702506,8.10800376607641));
#292=CARTESIAN_POINT('Ctrl Pts',(3.56965997846776,-7.90588777413941,7.44375510564279));
#293=CARTESIAN_POINT('Ctrl Pts',(2.90087846820607,-8.18224457327166,7.13154851961725));
#294=CARTESIAN_POINT('Ctrl Pts',(1.47676393418145,-8.55472788285157,6.68017668051746));
#295=CARTESIAN_POINT('Ctrl Pts',(0.718434299318311,-8.65,6.54980915752513));
#296=CARTESIAN_POINT('Ctrl Pts',(-2.08166817117217E-16,-8.65,6.54980915752513));
#297=CARTESIAN_POINT('Origin',(0.,0.,38.1));
#298=CARTESIAN_POINT('Origin',(0.,0.,0.));
#299=CARTESIAN_POINT('',(38.1,-10.85,-1.32874177707488E-15));
#300=CARTESIAN_POINT('Origin',(38.1,0.,0.));
#301=CARTESIAN_POINT('',(-38.1,-10.85,-1.32874177707488E-15));
#302=CARTESIAN_POINT('',(0.,-10.85,-1.32874177707488E-15));
#303=CARTESIAN_POINT('Origin',(-38.1,0.,0.));
#304=CARTESIAN_POINT('Origin',(-38.1,0.,0.));
#305=CARTESIAN_POINT('',(-38.1,9.2,1.12667505521557E-15));
#306=CARTESIAN_POINT('Origin',(-38.1,0.,0.));
#307=CARTESIAN_POINT('Origin',(0.,0.,0.));
#308=CARTESIAN_POINT('',(38.1,9.2,1.12667505521557E-15));
#309=CARTESIAN_POINT('Origin',(38.1,0.,0.));
#310=CARTESIAN_POINT('',(0.,9.2,1.12667505521557E-15));
#311=CARTESIAN_POINT('Origin',(38.1,0.,0.));
#312=UNCERTAINTY_MEASURE_WITH_UNIT(LENGTH_MEASURE(0.01),#316,
'DISTANCE_ACCURACY_VALUE',
'Maximum model space distance between geometric entities at asserted c
onnectivities');
#313=UNCERTAINTY_MEASURE_WITH_UNIT(LENGTH_MEASURE(0.01),#316,
'DISTANCE_ACCURACY_VALUE',
'Maximum model space distance between geometric entities at asserted c
onnectivities');
#314=(
GEOMETRIC_REPRESENTATION_CONTEXT(3)
GLOBAL_UNCERTAINTY_ASSIGNED_CONTEXT((#312))
GLOBAL_UNIT_ASSIGNED_CONTEXT((#316,#318,#319))
REPRESENTATION_CONTEXT('','3D')
);
#315=(
GEOMETRIC_REPRESENTATION_CONTEXT(3)
GLOBAL_UNCERTAINTY_ASSIGNED_CONTEXT((#313))
GLOBAL_UNIT_ASSIGNED_CONTEXT((#316,#318,#319))
REPRESENTATION_CONTEXT('','3D')
);
#316=(
LENGTH_UNIT()
NAMED_UNIT(*)
SI_UNIT(.MILLI.,.METRE.)
);
#317=(
LENGTH_UNIT()
NAMED_UNIT(*)
SI_UNIT(.CENTI.,.METRE.)
);
#318=(
NAMED_UNIT(*)
PLANE_ANGLE_UNIT()
SI_UNIT($,.RADIAN.)
);
#319=(
NAMED_UNIT(*)
SI_UNIT($,.STERADIAN.)
SOLID_ANGLE_UNIT()
);
#320=SHAPE_DEFINITION_REPRESENTATION(#321,#322);
#321=PRODUCT_DEFINITION_SHAPE('',$,#324);
#322=SHAPE_REPRESENTATION('',(#142),#314);
#323=PRODUCT_DEFINITION_CONTEXT('part definition',#328,'design');
#324=PRODUCT_DEFINITION('D8(R) 04\X\D703','D8(R) 04\X\D703',#325,#323);
#325=PRODUCT_DEFINITION_FORMATION('',$,#330);
#326=PRODUCT_RELATED_PRODUCT_CATEGORY('D8(R) 04\X\D703','D8(R) 04\X\D7
03',(#330));
#327=APPLICATION_PROTOCOL_DEFINITION('international standard',
'automotive_design',2009,#328);
#328=APPLICATION_CONTEXT(
'Core Data for Automotive Mechanical Design Process');
#329=PRODUCT_CONTEXT('part definition',#328,'mechanical');
#330=PRODUCT('D8(R) 04\X\D703','D8(R) 04\X\D703',$,(#329));
#331=PRESENTATION_STYLE_ASSIGNMENT((#332));
#332=SURFACE_STYLE_USAGE(.BOTH.,#335);
#333=SURFACE_STYLE_RENDERING_WITH_PROPERTIES($,#339,(#334));
#334=SURFACE_STYLE_TRANSPARENT(0.);
#335=SURFACE_SIDE_STYLE('',(#336,#333));
#336=SURFACE_STYLE_FILL_AREA(#337);
#337=FILL_AREA_STYLE('',(#338));
#338=FILL_AREA_STYLE_COLOUR('',#339);
#339=COLOUR_RGB('',0.749019607843137,0.749019607843137,0.749019607843137);
ENDSEC;
END-ISO-10303-21;
