ISO-10303-21;
HEADER;
/* Generated by software containing ST-Developer
 * from STEP Tools, Inc. (www.steptools.com) 
 */

FILE_DESCRIPTION(
/* description */ (''),
/* implementation_level */ '2;1');

FILE_NAME(
/* name */ 
'\\\\Tske00\\w\\Work\\TOSTE\\\X2\7D99624B\X0\\\02_\X2\6EB663A5\X0\\\\X2\6EB663A5752830C130FC30BA\X0\\\
D8(R)\\D8(R) 03\X\D702.stp',
/* time_stamp */ '2022-04-12T17:07:40+09:00',
/* author */ ('3dcad-eng'),
/* organization */ (''),
/* preprocessor_version */ 'ST-DEVELOPER v18.1',
/* originating_system */ 'Autodesk Inventor 2022',
/* authorisation */ '');

FILE_SCHEMA (('AUTOMOTIVE_DESIGN { 1 0 10303 214 3 1 1 }'));
ENDSEC;

DATA;
#10=MECHANICAL_DESIGN_GEOMETRIC_PRESENTATION_REPRESENTATION('',(#13),#307);
#11=SHAPE_REPRESENTATION_RELATIONSHIP('SRR','None',#314,#12);
#12=ADVANCED_BREP_SHAPE_REPRESENTATION('',(#14),#306);
#13=STYLED_ITEM('',(#323),#14);
#14=MANIFOLD_SOLID_BREP('\X2\30BD30EA30C330C9\X0\1',#123);
#15=FACE_BOUND('',#33,.T.);
#16=FACE_BOUND('',#35,.T.);
#17=FACE_BOUND('',#37,.T.);
#18=FACE_BOUND('',#39,.T.);
#19=FACE_BOUND('',#41,.T.);
#20=PLANE('',#147);
#21=PLANE('',#151);
#22=PLANE('',#155);
#23=FACE_OUTER_BOUND('',#30,.T.);
#24=FACE_OUTER_BOUND('',#31,.T.);
#25=FACE_OUTER_BOUND('',#32,.T.);
#26=FACE_OUTER_BOUND('',#34,.T.);
#27=FACE_OUTER_BOUND('',#36,.T.);
#28=FACE_OUTER_BOUND('',#38,.T.);
#29=FACE_OUTER_BOUND('',#40,.T.);
#30=EDGE_LOOP('',(#84,#85,#86,#87,#88));
#31=EDGE_LOOP('',(#89,#90,#91,#92,#93));
#32=EDGE_LOOP('',(#94));
#33=EDGE_LOOP('',(#95));
#34=EDGE_LOOP('',(#96,#97,#98,#99));
#35=EDGE_LOOP('',(#100,#101));
#36=EDGE_LOOP('',(#102));
#37=EDGE_LOOP('',(#103));
#38=EDGE_LOOP('',(#104,#105,#106,#107));
#39=EDGE_LOOP('',(#108,#109));
#40=EDGE_LOOP('',(#110));
#41=EDGE_LOOP('',(#111));
#42=B_SPLINE_CURVE_WITH_KNOTS('',3,(#195,#196,#197,#198,#199,#200,#201,
#202,#203,#204,#205,#206),.UNSPECIFIED.,.F.,.F.,(4,2,2,2,2,4),(0.,0.105759555379115,
0.21151911075823,0.42303822151646,0.63010844235157,0.83717866318668),
 .UNSPECIFIED.);
#43=B_SPLINE_CURVE_WITH_KNOTS('',3,(#207,#208,#209,#210,#211,#212,#213,
#214,#215,#216,#217,#218,#219,#220,#221,#222,#223,#224,#225,#226,#227,#228,
#229,#230,#231,#232,#233,#234,#235,#236,#237,#238),.UNSPECIFIED.,.F.,.F.,
(4,2,2,2,2,2,2,2,2,2,2,2,2,2,2,4),(0.83717866318668,1.04424888402179,1.2513191048569,
1.46283821561513,1.56859777099424,1.67435732637336,1.78011688175247,1.88587643713159,
2.09739554788982,2.30446576872493,2.51153598956004,2.71860621039515,2.92567643123026,
3.13719554198849,3.2429550973676,3.34871465274672),.UNSPECIFIED.);
#44=B_SPLINE_CURVE_WITH_KNOTS('',3,(#245,#246,#247,#248,#249,#250,#251,
#252,#253,#254,#255,#256),.UNSPECIFIED.,.F.,.F.,(4,2,2,2,2,4),(0.,0.141366608587533,
0.282733217175067,0.565466434350133,0.839565547301014,1.1136646602519),
 .UNSPECIFIED.);
#45=B_SPLINE_CURVE_WITH_KNOTS('',3,(#257,#258,#259,#260,#261,#262,#263,
#264,#265,#266,#267,#268,#269,#270,#271,#272,#273,#274,#275,#276,#277,#278,
#279,#280,#281,#282,#283,#284,#285,#286,#287,#288),.UNSPECIFIED.,.F.,.F.,
(4,2,2,2,2,2,2,2,2,2,2,2,2,2,2,4),(1.1136646602519,1.38776377320278,1.66186288615366,
1.94459610332872,2.08596271191626,2.22732932050379,2.36869592909132,2.51006253767886,
2.79279575485392,3.06689486780481,3.34099398075569,3.61509309370657,3.88919220665745,
4.17192542383251,4.31329203242005,4.45465864100758),.UNSPECIFIED.);
#46=LINE('',#193,#50);
#47=LINE('',#243,#51);
#48=LINE('',#294,#52);
#49=LINE('',#302,#53);
#50=VECTOR('',#162,5.25);
#51=VECTOR('',#167,6.9);
#52=VECTOR('',#174,8.65);
#53=VECTOR('',#185,7.);
#54=CIRCLE('',#144,5.25);
#55=CIRCLE('',#146,6.9);
#56=CIRCLE('',#149,8.65);
#57=CIRCLE('',#150,8.65);
#58=CIRCLE('',#152,7.);
#59=CIRCLE('',#154,7.);
#60=VERTEX_POINT('',#190);
#61=VERTEX_POINT('',#192);
#62=VERTEX_POINT('',#194);
#63=VERTEX_POINT('',#240);
#64=VERTEX_POINT('',#242);
#65=VERTEX_POINT('',#244);
#66=VERTEX_POINT('',#291);
#67=VERTEX_POINT('',#293);
#68=VERTEX_POINT('',#297);
#69=VERTEX_POINT('',#300);
#70=EDGE_CURVE('',#60,#60,#54,.T.);
#71=EDGE_CURVE('',#60,#61,#46,.T.);
#72=EDGE_CURVE('',#62,#61,#42,.T.);
#73=EDGE_CURVE('',#61,#62,#43,.T.);
#74=EDGE_CURVE('',#63,#63,#55,.T.);
#75=EDGE_CURVE('',#63,#64,#47,.T.);
#76=EDGE_CURVE('',#65,#64,#44,.T.);
#77=EDGE_CURVE('',#64,#65,#45,.T.);
#78=EDGE_CURVE('',#66,#66,#56,.T.);
#79=EDGE_CURVE('',#66,#67,#48,.T.);
#80=EDGE_CURVE('',#67,#67,#57,.T.);
#81=EDGE_CURVE('',#68,#68,#58,.T.);
#82=EDGE_CURVE('',#69,#69,#59,.T.);
#83=EDGE_CURVE('',#69,#68,#49,.T.);
#84=ORIENTED_EDGE('',*,*,#70,.F.);
#85=ORIENTED_EDGE('',*,*,#71,.T.);
#86=ORIENTED_EDGE('',*,*,#72,.F.);
#87=ORIENTED_EDGE('',*,*,#73,.F.);
#88=ORIENTED_EDGE('',*,*,#71,.F.);
#89=ORIENTED_EDGE('',*,*,#74,.F.);
#90=ORIENTED_EDGE('',*,*,#75,.T.);
#91=ORIENTED_EDGE('',*,*,#76,.F.);
#92=ORIENTED_EDGE('',*,*,#77,.F.);
#93=ORIENTED_EDGE('',*,*,#75,.F.);
#94=ORIENTED_EDGE('',*,*,#74,.T.);
#95=ORIENTED_EDGE('',*,*,#70,.T.);
#96=ORIENTED_EDGE('',*,*,#78,.F.);
#97=ORIENTED_EDGE('',*,*,#79,.T.);
#98=ORIENTED_EDGE('',*,*,#80,.F.);
#99=ORIENTED_EDGE('',*,*,#79,.F.);
#100=ORIENTED_EDGE('',*,*,#76,.T.);
#101=ORIENTED_EDGE('',*,*,#77,.T.);
#102=ORIENTED_EDGE('',*,*,#80,.T.);
#103=ORIENTED_EDGE('',*,*,#81,.T.);
#104=ORIENTED_EDGE('',*,*,#82,.F.);
#105=ORIENTED_EDGE('',*,*,#83,.T.);
#106=ORIENTED_EDGE('',*,*,#81,.F.);
#107=ORIENTED_EDGE('',*,*,#83,.F.);
#108=ORIENTED_EDGE('',*,*,#72,.T.);
#109=ORIENTED_EDGE('',*,*,#73,.T.);
#110=ORIENTED_EDGE('',*,*,#78,.T.);
#111=ORIENTED_EDGE('',*,*,#82,.T.);
#112=CYLINDRICAL_SURFACE('',#143,5.25);
#113=CYLINDRICAL_SURFACE('',#145,6.9);
#114=CYLINDRICAL_SURFACE('',#148,8.65);
#115=CYLINDRICAL_SURFACE('',#153,7.);
#116=ADVANCED_FACE('',(#23),#112,.F.);
#117=ADVANCED_FACE('',(#24),#113,.T.);
#118=ADVANCED_FACE('',(#25,#15),#20,.T.);
#119=ADVANCED_FACE('',(#26,#16),#114,.T.);
#120=ADVANCED_FACE('',(#27,#17),#21,.F.);
#121=ADVANCED_FACE('',(#28,#18),#115,.F.);
#122=ADVANCED_FACE('',(#29,#19),#22,.T.);
#123=CLOSED_SHELL('',(#116,#117,#118,#119,#120,#121,#122));
#124=DERIVED_UNIT_ELEMENT(#126,1.);
#125=DERIVED_UNIT_ELEMENT(#309,-3.);
#126=(
MASS_UNIT()
NAMED_UNIT(*)
SI_UNIT($,.GRAM.)
);
#127=DERIVED_UNIT((#124,#125));
#128=MEASURE_REPRESENTATION_ITEM('density measure',
POSITIVE_RATIO_MEASURE(1.),#127);
#129=PROPERTY_DEFINITION_REPRESENTATION(#134,#131);
#130=PROPERTY_DEFINITION_REPRESENTATION(#135,#132);
#131=REPRESENTATION('material name',(#133),#306);
#132=REPRESENTATION('density',(#128),#306);
#133=DESCRIPTIVE_REPRESENTATION_ITEM('\X2\4E00822C\X0\','\X2\4E00822C\X0\');
#134=PROPERTY_DEFINITION('material property','material name',#316);
#135=PROPERTY_DEFINITION('material property','density of part',#316);
#136=DATE_TIME_ROLE('creation_date');
#137=APPLIED_DATE_AND_TIME_ASSIGNMENT(#138,#136,(#316));
#138=DATE_AND_TIME(#139,#140);
#139=CALENDAR_DATE(2022,30,3);
#140=LOCAL_TIME(0,0,0.,#141);
#141=COORDINATED_UNIVERSAL_TIME_OFFSET(0,0,.BEHIND.);
#142=AXIS2_PLACEMENT_3D('placement',#188,#156,#157);
#143=AXIS2_PLACEMENT_3D('',#189,#158,#159);
#144=AXIS2_PLACEMENT_3D('',#191,#160,#161);
#145=AXIS2_PLACEMENT_3D('',#239,#163,#164);
#146=AXIS2_PLACEMENT_3D('',#241,#165,#166);
#147=AXIS2_PLACEMENT_3D('',#289,#168,#169);
#148=AXIS2_PLACEMENT_3D('',#290,#170,#171);
#149=AXIS2_PLACEMENT_3D('',#292,#172,#173);
#150=AXIS2_PLACEMENT_3D('',#295,#175,#176);
#151=AXIS2_PLACEMENT_3D('',#296,#177,#178);
#152=AXIS2_PLACEMENT_3D('',#298,#179,#180);
#153=AXIS2_PLACEMENT_3D('',#299,#181,#182);
#154=AXIS2_PLACEMENT_3D('',#301,#183,#184);
#155=AXIS2_PLACEMENT_3D('',#303,#186,#187);
#156=DIRECTION('axis',(0.,0.,1.));
#157=DIRECTION('refdir',(1.,0.,0.));
#158=DIRECTION('center_axis',(0.,0.,1.));
#159=DIRECTION('ref_axis',(-1.,0.,0.));
#160=DIRECTION('center_axis',(0.,0.,-1.));
#161=DIRECTION('ref_axis',(-1.,0.,0.));
#162=DIRECTION('',(0.,0.,-1.));
#163=DIRECTION('center_axis',(0.,0.,1.));
#164=DIRECTION('ref_axis',(1.,0.,0.));
#165=DIRECTION('center_axis',(0.,0.,1.));
#166=DIRECTION('ref_axis',(1.,0.,0.));
#167=DIRECTION('',(0.,0.,-1.));
#168=DIRECTION('center_axis',(0.,0.,1.));
#169=DIRECTION('ref_axis',(1.,0.,0.));
#170=DIRECTION('center_axis',(1.,0.,0.));
#171=DIRECTION('ref_axis',(0.,1.,0.));
#172=DIRECTION('center_axis',(1.,0.,0.));
#173=DIRECTION('ref_axis',(0.,1.,0.));
#174=DIRECTION('',(-1.,0.,0.));
#175=DIRECTION('center_axis',(-1.,0.,0.));
#176=DIRECTION('ref_axis',(0.,1.,0.));
#177=DIRECTION('center_axis',(1.,0.,0.));
#178=DIRECTION('ref_axis',(0.,0.,-1.));
#179=DIRECTION('center_axis',(1.,0.,0.));
#180=DIRECTION('ref_axis',(0.,-1.,0.));
#181=DIRECTION('center_axis',(1.,0.,0.));
#182=DIRECTION('ref_axis',(0.,-1.,0.));
#183=DIRECTION('center_axis',(-1.,0.,0.));
#184=DIRECTION('ref_axis',(0.,-1.,0.));
#185=DIRECTION('',(-1.,0.,0.));
#186=DIRECTION('center_axis',(1.,0.,0.));
#187=DIRECTION('ref_axis',(0.,0.,-1.));
#188=CARTESIAN_POINT('',(0.,0.,0.));
#189=CARTESIAN_POINT('Origin',(0.,0.,0.));
#190=CARTESIAN_POINT('',(5.25,6.42939569552361E-16,38.1));
#191=CARTESIAN_POINT('Origin',(0.,0.,38.1));
#192=CARTESIAN_POINT('',(5.25,1.15413705324505E-15,7.));
#193=CARTESIAN_POINT('',(5.25,6.42939569552361E-16,0.));
#194=CARTESIAN_POINT('',(-6.93889390390723E-17,-5.25,4.63006479436303));
#195=CARTESIAN_POINT('Ctrl Pts',(-6.93889390390723E-17,-5.25,4.63006479436303));
#196=CARTESIAN_POINT('Ctrl Pts',(0.352531851263716,-5.25,4.63006479436303));
#197=CARTESIAN_POINT('Ctrl Pts',(0.706362722722929,-5.21413851203881,4.67156649020589));
#198=CARTESIAN_POINT('Ctrl Pts',(1.39551404854459,-5.07333513499456,4.8241107348052));
#199=CARTESIAN_POINT('Ctrl Pts',(1.73100021407684,-4.96847545693765,4.93447973173239));
#200=CARTESIAN_POINT('Ctrl Pts',(2.68623390298515,-4.563453032551,5.32111247154463));
#201=CARTESIAN_POINT('Ctrl Pts',(3.25636720429788,-4.16825399816087,5.64932642447152));
#202=CARTESIAN_POINT('Ctrl Pts',(4.15866412244303,-3.26595708001572,6.21375216404914));
#203=CARTESIAN_POINT('Ctrl Pts',(4.55960051545007,-2.69469122217386,6.49551760972552));
#204=CARTESIAN_POINT('Ctrl Pts',(5.10590150514975,-1.40751192854692,6.88999430839767));
#205=CARTESIAN_POINT('Ctrl Pts',(5.25,-0.690234069450366,7.));
#206=CARTESIAN_POINT('Ctrl Pts',(5.25,1.38777878078145E-15,7.));
#207=CARTESIAN_POINT('Ctrl Pts',(5.25,1.66533453693773E-15,7.));
#208=CARTESIAN_POINT('Ctrl Pts',(5.25,0.690234069450369,7.));
#209=CARTESIAN_POINT('Ctrl Pts',(5.10590150514975,1.40751192854693,6.88999430839767));
#210=CARTESIAN_POINT('Ctrl Pts',(4.55960051545007,2.69469122217387,6.49551760972551));
#211=CARTESIAN_POINT('Ctrl Pts',(4.15866412244302,3.26595708001573,6.21375216404914));
#212=CARTESIAN_POINT('Ctrl Pts',(3.25636720429787,4.16825399816087,5.64932642447152));
#213=CARTESIAN_POINT('Ctrl Pts',(2.68623390298515,4.563453032551,5.32111247154463));
#214=CARTESIAN_POINT('Ctrl Pts',(1.73100021407684,4.96847545693765,4.93447973173239));
#215=CARTESIAN_POINT('Ctrl Pts',(1.39551404854459,5.07333513499456,4.8241107348052));
#216=CARTESIAN_POINT('Ctrl Pts',(0.706362722722929,5.21413851203881,4.67156649020589));
#217=CARTESIAN_POINT('Ctrl Pts',(0.352531851263715,5.25,4.63006479436303));
#218=CARTESIAN_POINT('Ctrl Pts',(-0.352531851263716,5.25,4.63006479436303));
#219=CARTESIAN_POINT('Ctrl Pts',(-0.706362722722929,5.21413851203881,4.67156649020589));
#220=CARTESIAN_POINT('Ctrl Pts',(-1.39551404854459,5.07333513499456,4.8241107348052));
#221=CARTESIAN_POINT('Ctrl Pts',(-1.73100021407684,4.96847545693765,4.93447973173239));
#222=CARTESIAN_POINT('Ctrl Pts',(-2.68623390298515,4.563453032551,5.32111247154463));
#223=CARTESIAN_POINT('Ctrl Pts',(-3.25636720429788,4.16825399816087,5.64932642447152));
#224=CARTESIAN_POINT('Ctrl Pts',(-4.15866412244303,3.26595708001572,6.21375216404914));
#225=CARTESIAN_POINT('Ctrl Pts',(-4.55960051545007,2.69469122217386,6.49551760972552));
#226=CARTESIAN_POINT('Ctrl Pts',(-5.10590150514975,1.40751192854692,6.88999430839767));
#227=CARTESIAN_POINT('Ctrl Pts',(-5.25,0.690234069450366,7.));
#228=CARTESIAN_POINT('Ctrl Pts',(-5.25,-0.690234069450368,7.));
#229=CARTESIAN_POINT('Ctrl Pts',(-5.10590150514975,-1.40751192854693,6.88999430839767));
#230=CARTESIAN_POINT('Ctrl Pts',(-4.55960051545007,-2.69469122217387,6.49551760972551));
#231=CARTESIAN_POINT('Ctrl Pts',(-4.15866412244302,-3.26595708001572,6.21375216404914));
#232=CARTESIAN_POINT('Ctrl Pts',(-3.25636720429788,-4.16825399816087,5.64932642447152));
#233=CARTESIAN_POINT('Ctrl Pts',(-2.68623390298515,-4.563453032551,5.32111247154463));
#234=CARTESIAN_POINT('Ctrl Pts',(-1.73100021407684,-4.96847545693765,4.93447973173239));
#235=CARTESIAN_POINT('Ctrl Pts',(-1.39551404854459,-5.07333513499456,4.8241107348052));
#236=CARTESIAN_POINT('Ctrl Pts',(-0.70636272272293,-5.21413851203881,4.67156649020589));
#237=CARTESIAN_POINT('Ctrl Pts',(-0.352531851263717,-5.25,4.63006479436303));
#238=CARTESIAN_POINT('Ctrl Pts',(1.38777878078145E-16,-5.25,4.63006479436303));
#239=CARTESIAN_POINT('Origin',(0.,0.,0.));
#240=CARTESIAN_POINT('',(-6.9,-8.45006291411674E-16,38.1));
#241=CARTESIAN_POINT('Origin',(0.,0.,38.1));
#242=CARTESIAN_POINT('',(-6.9,1.32608366606741E-16,8.65));
#243=CARTESIAN_POINT('',(-6.9,-8.45006291411674E-16,0.));
#244=CARTESIAN_POINT('',(-1.38777878078145E-16,-6.9,5.21656016930697));
#245=CARTESIAN_POINT('Ctrl Pts',(-1.38777878078145E-16,-6.9,5.21656016930697));
#246=CARTESIAN_POINT('Ctrl Pts',(-0.471222028625111,-6.9,5.21656016930697));
#247=CARTESIAN_POINT('Ctrl Pts',(-0.938825020411701,-6.85145973726258,5.28226637587722));
#248=CARTESIAN_POINT('Ctrl Pts',(-1.84478381390022,-6.66488303204971,5.5158111447956));
#249=CARTESIAN_POINT('Ctrl Pts',(-2.28346787070596,-6.52690910674816,5.68242456942659));
#250=CARTESIAN_POINT('Ctrl Pts',(-3.5327695365573,-5.99571654224107,6.25666400814905));
#251=CARTESIAN_POINT('Ctrl Pts',(-4.27896140575554,-5.47911217461881,6.73275130329269));
#252=CARTESIAN_POINT('Ctrl Pts',(-5.46078707839094,-4.29728650198342,7.54003824239093));
#253=CARTESIAN_POINT('Ctrl Pts',(-5.98745012588459,-3.55035011295383,7.93786749634771));
#254=CARTESIAN_POINT('Ctrl Pts',(-6.70797131621548,-1.8594811605215,8.49453115973814));
#255=CARTESIAN_POINT('Ctrl Pts',(-6.9,-0.91366370983627,8.65));
#256=CARTESIAN_POINT('Ctrl Pts',(-6.9,5.55111512312578E-16,8.65));
#257=CARTESIAN_POINT('Ctrl Pts',(-6.9,1.11022302462516E-15,8.65));
#258=CARTESIAN_POINT('Ctrl Pts',(-6.9,0.913663709836271,8.65));
#259=CARTESIAN_POINT('Ctrl Pts',(-6.70797131621548,1.8594811605215,8.49453115973814));
#260=CARTESIAN_POINT('Ctrl Pts',(-5.98745012588459,3.55035011295383,7.93786749634771));
#261=CARTESIAN_POINT('Ctrl Pts',(-5.46078707839093,4.29728650198342,7.54003824239093));
#262=CARTESIAN_POINT('Ctrl Pts',(-4.27896140575554,5.47911217461881,6.73275130329269));
#263=CARTESIAN_POINT('Ctrl Pts',(-3.5327695365573,5.99571654224107,6.25666400814905));
#264=CARTESIAN_POINT('Ctrl Pts',(-2.28346787070596,6.52690910674816,5.68242456942659));
#265=CARTESIAN_POINT('Ctrl Pts',(-1.84478381390022,6.66488303204971,5.5158111447956));
#266=CARTESIAN_POINT('Ctrl Pts',(-0.9388250204117,6.85145973726258,5.28226637587722));
#267=CARTESIAN_POINT('Ctrl Pts',(-0.471222028625111,6.9,5.21656016930697));
#268=CARTESIAN_POINT('Ctrl Pts',(0.471222028625111,6.9,5.21656016930697));
#269=CARTESIAN_POINT('Ctrl Pts',(0.9388250204117,6.85145973726258,5.28226637587722));
#270=CARTESIAN_POINT('Ctrl Pts',(1.84478381390022,6.66488303204971,5.5158111447956));
#271=CARTESIAN_POINT('Ctrl Pts',(2.28346787070596,6.52690910674816,5.68242456942659));
#272=CARTESIAN_POINT('Ctrl Pts',(3.5327695365573,5.99571654224107,6.25666400814905));
#273=CARTESIAN_POINT('Ctrl Pts',(4.27896140575554,5.47911217461881,6.73275130329269));
#274=CARTESIAN_POINT('Ctrl Pts',(5.46078707839094,4.29728650198342,7.54003824239093));
#275=CARTESIAN_POINT('Ctrl Pts',(5.98745012588459,3.55035011295383,7.93786749634771));
#276=CARTESIAN_POINT('Ctrl Pts',(6.70797131621548,1.8594811605215,8.49453115973814));
#277=CARTESIAN_POINT('Ctrl Pts',(6.9,0.913663709836269,8.65));
#278=CARTESIAN_POINT('Ctrl Pts',(6.9,-0.913663709836269,8.65));
#279=CARTESIAN_POINT('Ctrl Pts',(6.70797131621548,-1.8594811605215,8.49453115973814));
#280=CARTESIAN_POINT('Ctrl Pts',(5.98745012588459,-3.55035011295383,7.93786749634771));
#281=CARTESIAN_POINT('Ctrl Pts',(5.46078707839094,-4.29728650198342,7.54003824239093));
#282=CARTESIAN_POINT('Ctrl Pts',(4.27896140575554,-5.47911217461881,6.73275130329269));
#283=CARTESIAN_POINT('Ctrl Pts',(3.5327695365573,-5.99571654224107,6.25666400814905));
#284=CARTESIAN_POINT('Ctrl Pts',(2.28346787070596,-6.52690910674815,5.68242456942659));
#285=CARTESIAN_POINT('Ctrl Pts',(1.84478381390022,-6.66488303204971,5.5158111447956));
#286=CARTESIAN_POINT('Ctrl Pts',(0.938825020411704,-6.85145973726258,5.28226637587722));
#287=CARTESIAN_POINT('Ctrl Pts',(0.471222028625113,-6.9,5.21656016930697));
#288=CARTESIAN_POINT('Ctrl Pts',(0.,-6.9,5.21656016930697));
#289=CARTESIAN_POINT('Origin',(0.,0.,38.1));
#290=CARTESIAN_POINT('Origin',(0.,0.,0.));
#291=CARTESIAN_POINT('',(38.1,-8.65,-1.05931948126246E-15));
#292=CARTESIAN_POINT('Origin',(38.1,0.,0.));
#293=CARTESIAN_POINT('',(-38.1,-8.65,-1.05931948126246E-15));
#294=CARTESIAN_POINT('',(0.,-8.65,-1.05931948126246E-15));
#295=CARTESIAN_POINT('Origin',(-38.1,0.,0.));
#296=CARTESIAN_POINT('Origin',(-38.1,0.,0.));
#297=CARTESIAN_POINT('',(-38.1,7.,8.57252759403147E-16));
#298=CARTESIAN_POINT('Origin',(-38.1,0.,0.));
#299=CARTESIAN_POINT('Origin',(0.,0.,0.));
#300=CARTESIAN_POINT('',(38.1,7.,8.57252759403147E-16));
#301=CARTESIAN_POINT('Origin',(38.1,0.,0.));
#302=CARTESIAN_POINT('',(0.,7.,8.57252759403147E-16));
#303=CARTESIAN_POINT('Origin',(38.1,0.,0.));
#304=UNCERTAINTY_MEASURE_WITH_UNIT(LENGTH_MEASURE(0.01),#308,
'DISTANCE_ACCURACY_VALUE',
'Maximum model space distance between geometric entities at asserted c
onnectivities');
#305=UNCERTAINTY_MEASURE_WITH_UNIT(LENGTH_MEASURE(0.01),#308,
'DISTANCE_ACCURACY_VALUE',
'Maximum model space distance between geometric entities at asserted c
onnectivities');
#306=(
GEOMETRIC_REPRESENTATION_CONTEXT(3)
GLOBAL_UNCERTAINTY_ASSIGNED_CONTEXT((#304))
GLOBAL_UNIT_ASSIGNED_CONTEXT((#308,#310,#311))
REPRESENTATION_CONTEXT('','3D')
);
#307=(
GEOMETRIC_REPRESENTATION_CONTEXT(3)
GLOBAL_UNCERTAINTY_ASSIGNED_CONTEXT((#305))
GLOBAL_UNIT_ASSIGNED_CONTEXT((#308,#310,#311))
REPRESENTATION_CONTEXT('','3D')
);
#308=(
LENGTH_UNIT()
NAMED_UNIT(*)
SI_UNIT(.MILLI.,.METRE.)
);
#309=(
LENGTH_UNIT()
NAMED_UNIT(*)
SI_UNIT(.CENTI.,.METRE.)
);
#310=(
NAMED_UNIT(*)
PLANE_ANGLE_UNIT()
SI_UNIT($,.RADIAN.)
);
#311=(
NAMED_UNIT(*)
SI_UNIT($,.STERADIAN.)
SOLID_ANGLE_UNIT()
);
#312=SHAPE_DEFINITION_REPRESENTATION(#313,#314);
#313=PRODUCT_DEFINITION_SHAPE('',$,#316);
#314=SHAPE_REPRESENTATION('',(#142),#306);
#315=PRODUCT_DEFINITION_CONTEXT('part definition',#320,'design');
#316=PRODUCT_DEFINITION('D8(R) 03\X\D702','D8(R) 03\X\D702',#317,#315);
#317=PRODUCT_DEFINITION_FORMATION('',$,#322);
#318=PRODUCT_RELATED_PRODUCT_CATEGORY('D8(R) 03\X\D702','D8(R) 03\X\D7
02',(#322));
#319=APPLICATION_PROTOCOL_DEFINITION('international standard',
'automotive_design',2009,#320);
#320=APPLICATION_CONTEXT(
'Core Data for Automotive Mechanical Design Process');
#321=PRODUCT_CONTEXT('part definition',#320,'mechanical');
#322=PRODUCT('D8(R) 03\X\D702','D8(R) 03\X\D702',$,(#321));
#323=PRESENTATION_STYLE_ASSIGNMENT((#324));
#324=SURFACE_STYLE_USAGE(.BOTH.,#327);
#325=SURFACE_STYLE_RENDERING_WITH_PROPERTIES($,#331,(#326));
#326=SURFACE_STYLE_TRANSPARENT(0.);
#327=SURFACE_SIDE_STYLE('',(#328,#325));
#328=SURFACE_STYLE_FILL_AREA(#329);
#329=FILL_AREA_STYLE('',(#330));
#330=FILL_AREA_STYLE_COLOUR('',#331);
#331=COLOUR_RGB('',0.749019607843137,0.749019607843137,0.749019607843137);
ENDSEC;
END-ISO-10303-21;
