ISO-10303-21;
HEADER;
/* Generated by software containing ST-Developer
 * from STEP Tools, Inc. (www.steptools.com) 
 */

FILE_DESCRIPTION(
/* description */ (''),
/* implementation_level */ '2;1');

FILE_NAME(
/* name */ 
'\\\\Tske00\\w\\Work\\TOSTE\\\X2\7D99624B\X0\\\02_\X2\6EB663A5\X0\\\\X2\6EB663A5752830C130FC30BA\X0\\\
D8\\D8 50.stp',
/* time_stamp */ '2022-04-12T14:45:20+09:00',
/* author */ ('3dcad-eng'),
/* organization */ (''),
/* preprocessor_version */ 'ST-DEVELOPER v18.1',
/* originating_system */ 'Autodesk Inventor 2022',
/* authorisation */ '');

FILE_SCHEMA (('AUTOMOTIVE_DESIGN { 1 0 10303 214 3 1 1 }'));
ENDSEC;

DATA;
#10=MECHANICAL_DESIGN_GEOMETRIC_PRESENTATION_REPRESENTATION('',(#13),#265);
#11=SHAPE_REPRESENTATION_RELATIONSHIP('SRR','None',#272,#12);
#12=ADVANCED_BREP_SHAPE_REPRESENTATION('',(#14),#264);
#13=STYLED_ITEM('',(#281),#14);
#14=MANIFOLD_SOLID_BREP('\X2\30BD30EA30C330C9\X0\1',#139);
#15=FACE_BOUND('',#31,.T.);
#16=FACE_BOUND('',#35,.T.);
#17=FACE_BOUND('',#37,.T.);
#18=PLANE('',#169);
#19=PLANE('',#176);
#20=PLANE('',#177);
#21=FACE_OUTER_BOUND('',#28,.T.);
#22=FACE_OUTER_BOUND('',#29,.T.);
#23=FACE_OUTER_BOUND('',#30,.T.);
#24=FACE_OUTER_BOUND('',#32,.T.);
#25=FACE_OUTER_BOUND('',#33,.T.);
#26=FACE_OUTER_BOUND('',#34,.T.);
#27=FACE_OUTER_BOUND('',#36,.T.);
#28=EDGE_LOOP('',(#92,#93,#94,#95,#96,#97));
#29=EDGE_LOOP('',(#98,#99,#100,#101,#102,#103));
#30=EDGE_LOOP('',(#104));
#31=EDGE_LOOP('',(#105));
#32=EDGE_LOOP('',(#106,#107,#108,#109,#110,#111,#112,#113,#114));
#33=EDGE_LOOP('',(#115,#116,#117,#118,#119,#120,#121,#122,#123));
#34=EDGE_LOOP('',(#124));
#35=EDGE_LOOP('',(#125));
#36=EDGE_LOOP('',(#126));
#37=EDGE_LOOP('',(#127));
#38=ELLIPSE('',#161,94.6108873227601,66.9);
#39=ELLIPSE('',#162,94.6108873227601,66.9);
#40=ELLIPSE('',#163,94.6108873227601,66.9);
#41=ELLIPSE('',#166,98.8535280098794,69.9);
#42=ELLIPSE('',#167,98.8535280098794,69.9);
#43=ELLIPSE('',#168,98.8535280098794,69.9);
#44=LINE('',#229,#50);
#45=LINE('',#239,#51);
#46=LINE('',#249,#52);
#47=LINE('',#251,#53);
#48=LINE('',#256,#54);
#49=LINE('',#258,#55);
#50=VECTOR('',#184,66.9);
#51=VECTOR('',#195,69.9);
#52=VECTOR('',#208,66.9);
#53=VECTOR('',#209,66.9);
#54=VECTOR('',#216,69.9);
#55=VECTOR('',#217,69.9);
#56=CIRCLE('',#160,66.9);
#57=CIRCLE('',#165,69.9);
#58=CIRCLE('',#171,66.9);
#59=CIRCLE('',#172,66.9);
#60=CIRCLE('',#174,69.9);
#61=CIRCLE('',#175,69.9);
#62=VERTEX_POINT('',#226);
#63=VERTEX_POINT('',#228);
#64=VERTEX_POINT('',#230);
#65=VERTEX_POINT('',#232);
#66=VERTEX_POINT('',#236);
#67=VERTEX_POINT('',#238);
#68=VERTEX_POINT('',#240);
#69=VERTEX_POINT('',#242);
#70=VERTEX_POINT('',#247);
#71=VERTEX_POINT('',#250);
#72=VERTEX_POINT('',#254);
#73=VERTEX_POINT('',#257);
#74=EDGE_CURVE('',#62,#62,#56,.T.);
#75=EDGE_CURVE('',#62,#63,#44,.T.);
#76=EDGE_CURVE('',#64,#63,#38,.T.);
#77=EDGE_CURVE('',#65,#64,#39,.T.);
#78=EDGE_CURVE('',#63,#65,#40,.T.);
#79=EDGE_CURVE('',#66,#66,#57,.T.);
#80=EDGE_CURVE('',#66,#67,#45,.T.);
#81=EDGE_CURVE('',#68,#67,#41,.T.);
#82=EDGE_CURVE('',#69,#68,#42,.T.);
#83=EDGE_CURVE('',#67,#69,#43,.T.);
#84=EDGE_CURVE('',#70,#70,#58,.T.);
#85=EDGE_CURVE('',#70,#65,#46,.T.);
#86=EDGE_CURVE('',#65,#71,#47,.T.);
#87=EDGE_CURVE('',#71,#71,#59,.T.);
#88=EDGE_CURVE('',#72,#72,#60,.T.);
#89=EDGE_CURVE('',#72,#68,#48,.T.);
#90=EDGE_CURVE('',#68,#73,#49,.T.);
#91=EDGE_CURVE('',#73,#73,#61,.T.);
#92=ORIENTED_EDGE('',*,*,#74,.F.);
#93=ORIENTED_EDGE('',*,*,#75,.T.);
#94=ORIENTED_EDGE('',*,*,#76,.F.);
#95=ORIENTED_EDGE('',*,*,#77,.F.);
#96=ORIENTED_EDGE('',*,*,#78,.F.);
#97=ORIENTED_EDGE('',*,*,#75,.F.);
#98=ORIENTED_EDGE('',*,*,#79,.F.);
#99=ORIENTED_EDGE('',*,*,#80,.T.);
#100=ORIENTED_EDGE('',*,*,#81,.F.);
#101=ORIENTED_EDGE('',*,*,#82,.F.);
#102=ORIENTED_EDGE('',*,*,#83,.F.);
#103=ORIENTED_EDGE('',*,*,#80,.F.);
#104=ORIENTED_EDGE('',*,*,#79,.T.);
#105=ORIENTED_EDGE('',*,*,#74,.T.);
#106=ORIENTED_EDGE('',*,*,#84,.F.);
#107=ORIENTED_EDGE('',*,*,#85,.T.);
#108=ORIENTED_EDGE('',*,*,#86,.T.);
#109=ORIENTED_EDGE('',*,*,#87,.F.);
#110=ORIENTED_EDGE('',*,*,#86,.F.);
#111=ORIENTED_EDGE('',*,*,#77,.T.);
#112=ORIENTED_EDGE('',*,*,#76,.T.);
#113=ORIENTED_EDGE('',*,*,#78,.T.);
#114=ORIENTED_EDGE('',*,*,#85,.F.);
#115=ORIENTED_EDGE('',*,*,#88,.F.);
#116=ORIENTED_EDGE('',*,*,#89,.T.);
#117=ORIENTED_EDGE('',*,*,#90,.T.);
#118=ORIENTED_EDGE('',*,*,#91,.F.);
#119=ORIENTED_EDGE('',*,*,#90,.F.);
#120=ORIENTED_EDGE('',*,*,#81,.T.);
#121=ORIENTED_EDGE('',*,*,#83,.T.);
#122=ORIENTED_EDGE('',*,*,#82,.T.);
#123=ORIENTED_EDGE('',*,*,#89,.F.);
#124=ORIENTED_EDGE('',*,*,#91,.T.);
#125=ORIENTED_EDGE('',*,*,#87,.T.);
#126=ORIENTED_EDGE('',*,*,#88,.T.);
#127=ORIENTED_EDGE('',*,*,#84,.T.);
#128=CYLINDRICAL_SURFACE('',#159,66.9);
#129=CYLINDRICAL_SURFACE('',#164,69.9);
#130=CYLINDRICAL_SURFACE('',#170,66.9);
#131=CYLINDRICAL_SURFACE('',#173,69.9);
#132=ADVANCED_FACE('',(#21),#128,.F.);
#133=ADVANCED_FACE('',(#22),#129,.T.);
#134=ADVANCED_FACE('',(#23,#15),#18,.T.);
#135=ADVANCED_FACE('',(#24),#130,.F.);
#136=ADVANCED_FACE('',(#25),#131,.T.);
#137=ADVANCED_FACE('',(#26,#16),#19,.F.);
#138=ADVANCED_FACE('',(#27,#17),#20,.T.);
#139=CLOSED_SHELL('',(#132,#133,#134,#135,#136,#137,#138));
#140=DERIVED_UNIT_ELEMENT(#142,1.);
#141=DERIVED_UNIT_ELEMENT(#267,-3.);
#142=(
MASS_UNIT()
NAMED_UNIT(*)
SI_UNIT($,.GRAM.)
);
#143=DERIVED_UNIT((#140,#141));
#144=MEASURE_REPRESENTATION_ITEM('density measure',
POSITIVE_RATIO_MEASURE(1.),#143);
#145=PROPERTY_DEFINITION_REPRESENTATION(#150,#147);
#146=PROPERTY_DEFINITION_REPRESENTATION(#151,#148);
#147=REPRESENTATION('material name',(#149),#264);
#148=REPRESENTATION('density',(#144),#264);
#149=DESCRIPTIVE_REPRESENTATION_ITEM('\X2\4E00822C\X0\','\X2\4E00822C\X0\');
#150=PROPERTY_DEFINITION('material property','material name',#274);
#151=PROPERTY_DEFINITION('material property','density of part',#274);
#152=DATE_TIME_ROLE('creation_date');
#153=APPLIED_DATE_AND_TIME_ASSIGNMENT(#154,#152,(#274));
#154=DATE_AND_TIME(#155,#156);
#155=CALENDAR_DATE(2022,30,3);
#156=LOCAL_TIME(0,0,0.,#157);
#157=COORDINATED_UNIVERSAL_TIME_OFFSET(0,0,.BEHIND.);
#158=AXIS2_PLACEMENT_3D('placement',#224,#178,#179);
#159=AXIS2_PLACEMENT_3D('',#225,#180,#181);
#160=AXIS2_PLACEMENT_3D('',#227,#182,#183);
#161=AXIS2_PLACEMENT_3D('',#231,#185,#186);
#162=AXIS2_PLACEMENT_3D('',#233,#187,#188);
#163=AXIS2_PLACEMENT_3D('',#234,#189,#190);
#164=AXIS2_PLACEMENT_3D('',#235,#191,#192);
#165=AXIS2_PLACEMENT_3D('',#237,#193,#194);
#166=AXIS2_PLACEMENT_3D('',#241,#196,#197);
#167=AXIS2_PLACEMENT_3D('',#243,#198,#199);
#168=AXIS2_PLACEMENT_3D('',#244,#200,#201);
#169=AXIS2_PLACEMENT_3D('',#245,#202,#203);
#170=AXIS2_PLACEMENT_3D('',#246,#204,#205);
#171=AXIS2_PLACEMENT_3D('',#248,#206,#207);
#172=AXIS2_PLACEMENT_3D('',#252,#210,#211);
#173=AXIS2_PLACEMENT_3D('',#253,#212,#213);
#174=AXIS2_PLACEMENT_3D('',#255,#214,#215);
#175=AXIS2_PLACEMENT_3D('',#259,#218,#219);
#176=AXIS2_PLACEMENT_3D('',#260,#220,#221);
#177=AXIS2_PLACEMENT_3D('',#261,#222,#223);
#178=DIRECTION('axis',(0.,0.,1.));
#179=DIRECTION('refdir',(1.,0.,0.));
#180=DIRECTION('center_axis',(0.,0.,1.));
#181=DIRECTION('ref_axis',(-1.,0.,0.));
#182=DIRECTION('center_axis',(0.,0.,-1.));
#183=DIRECTION('ref_axis',(-1.,0.,0.));
#184=DIRECTION('',(0.,0.,-1.));
#185=DIRECTION('center_axis',(-0.707106781186548,0.,0.707106781186548));
#186=DIRECTION('ref_axis',(0.707106781186548,0.,0.707106781186548));
#187=DIRECTION('center_axis',(0.707106781186548,0.,0.707106781186548));
#188=DIRECTION('ref_axis',(0.707106781186548,0.,-0.707106781186548));
#189=DIRECTION('center_axis',(-0.707106781186548,0.,0.707106781186548));
#190=DIRECTION('ref_axis',(0.707106781186548,0.,0.707106781186548));
#191=DIRECTION('center_axis',(0.,0.,1.));
#192=DIRECTION('ref_axis',(1.,0.,0.));
#193=DIRECTION('center_axis',(0.,0.,1.));
#194=DIRECTION('ref_axis',(1.,0.,0.));
#195=DIRECTION('',(0.,0.,-1.));
#196=DIRECTION('center_axis',(-0.707106781186548,0.,-0.707106781186548));
#197=DIRECTION('ref_axis',(0.707106781186547,0.,-0.707106781186547));
#198=DIRECTION('center_axis',(0.707106781186548,0.,-0.707106781186548));
#199=DIRECTION('ref_axis',(0.707106781186547,0.,0.707106781186547));
#200=DIRECTION('center_axis',(-0.707106781186548,0.,-0.707106781186548));
#201=DIRECTION('ref_axis',(0.707106781186547,0.,-0.707106781186547));
#202=DIRECTION('center_axis',(0.,0.,1.));
#203=DIRECTION('ref_axis',(1.,0.,0.));
#204=DIRECTION('center_axis',(1.,0.,0.));
#205=DIRECTION('ref_axis',(0.,-1.,0.));
#206=DIRECTION('center_axis',(-1.,0.,0.));
#207=DIRECTION('ref_axis',(0.,-1.,0.));
#208=DIRECTION('',(-1.,0.,0.));
#209=DIRECTION('',(-1.,0.,0.));
#210=DIRECTION('center_axis',(1.,0.,0.));
#211=DIRECTION('ref_axis',(0.,-1.,0.));
#212=DIRECTION('center_axis',(1.,0.,0.));
#213=DIRECTION('ref_axis',(0.,1.,0.));
#214=DIRECTION('center_axis',(1.,0.,0.));
#215=DIRECTION('ref_axis',(0.,1.,0.));
#216=DIRECTION('',(-1.,0.,0.));
#217=DIRECTION('',(-1.,0.,0.));
#218=DIRECTION('center_axis',(-1.,0.,0.));
#219=DIRECTION('ref_axis',(0.,1.,0.));
#220=DIRECTION('center_axis',(1.,0.,0.));
#221=DIRECTION('ref_axis',(0.,0.,-1.));
#222=DIRECTION('center_axis',(1.,0.,0.));
#223=DIRECTION('ref_axis',(0.,0.,-1.));
#224=CARTESIAN_POINT('',(0.,0.,0.));
#225=CARTESIAN_POINT('Origin',(0.,0.,0.));
#226=CARTESIAN_POINT('',(66.9,8.19288708629579E-15,145.));
#227=CARTESIAN_POINT('Origin',(0.,0.,145.));
#228=CARTESIAN_POINT('',(66.9,8.1928870862958E-15,66.9));
#229=CARTESIAN_POINT('',(66.9,8.19288708629579E-15,0.));
#230=CARTESIAN_POINT('',(0.,-66.9,0.));
#231=CARTESIAN_POINT('Origin',(0.,0.,0.));
#232=CARTESIAN_POINT('',(0.,66.9,0.));
#233=CARTESIAN_POINT('Origin',(0.,0.,0.));
#234=CARTESIAN_POINT('Origin',(0.,0.,0.));
#235=CARTESIAN_POINT('Origin',(0.,0.,0.));
#236=CARTESIAN_POINT('',(-69.9,-8.56028112604E-15,145.));
#237=CARTESIAN_POINT('Origin',(0.,0.,145.));
#238=CARTESIAN_POINT('',(-69.9,-8.56028112604E-15,69.9));
#239=CARTESIAN_POINT('',(-69.9,-8.56028112604E-15,0.));
#240=CARTESIAN_POINT('',(0.,-69.9,0.));
#241=CARTESIAN_POINT('Origin',(0.,0.,0.));
#242=CARTESIAN_POINT('',(0.,69.9,0.));
#243=CARTESIAN_POINT('Origin',(0.,0.,0.));
#244=CARTESIAN_POINT('Origin',(0.,0.,0.));
#245=CARTESIAN_POINT('Origin',(0.,0.,145.));
#246=CARTESIAN_POINT('Origin',(0.,0.,0.));
#247=CARTESIAN_POINT('',(145.,66.9,8.19288708629579E-15));
#248=CARTESIAN_POINT('Origin',(145.,0.,0.));
#249=CARTESIAN_POINT('',(0.,66.9,8.19288708629579E-15));
#250=CARTESIAN_POINT('',(-145.,66.9,8.19288708629579E-15));
#251=CARTESIAN_POINT('',(0.,66.9,8.19288708629579E-15));
#252=CARTESIAN_POINT('Origin',(-145.,0.,0.));
#253=CARTESIAN_POINT('Origin',(0.,0.,0.));
#254=CARTESIAN_POINT('',(145.,-69.9,-8.56028112604E-15));
#255=CARTESIAN_POINT('Origin',(145.,0.,0.));
#256=CARTESIAN_POINT('',(0.,-69.9,-8.56028112604E-15));
#257=CARTESIAN_POINT('',(-145.,-69.9,-8.56028112604E-15));
#258=CARTESIAN_POINT('',(0.,-69.9,-8.56028112604E-15));
#259=CARTESIAN_POINT('Origin',(-145.,0.,0.));
#260=CARTESIAN_POINT('Origin',(-145.,0.,0.));
#261=CARTESIAN_POINT('Origin',(145.,0.,0.));
#262=UNCERTAINTY_MEASURE_WITH_UNIT(LENGTH_MEASURE(0.01),#266,
'DISTANCE_ACCURACY_VALUE',
'Maximum model space distance between geometric entities at asserted c
onnectivities');
#263=UNCERTAINTY_MEASURE_WITH_UNIT(LENGTH_MEASURE(0.01),#266,
'DISTANCE_ACCURACY_VALUE',
'Maximum model space distance between geometric entities at asserted c
onnectivities');
#264=(
GEOMETRIC_REPRESENTATION_CONTEXT(3)
GLOBAL_UNCERTAINTY_ASSIGNED_CONTEXT((#262))
GLOBAL_UNIT_ASSIGNED_CONTEXT((#266,#268,#269))
REPRESENTATION_CONTEXT('','3D')
);
#265=(
GEOMETRIC_REPRESENTATION_CONTEXT(3)
GLOBAL_UNCERTAINTY_ASSIGNED_CONTEXT((#263))
GLOBAL_UNIT_ASSIGNED_CONTEXT((#266,#268,#269))
REPRESENTATION_CONTEXT('','3D')
);
#266=(
LENGTH_UNIT()
NAMED_UNIT(*)
SI_UNIT(.MILLI.,.METRE.)
);
#267=(
LENGTH_UNIT()
NAMED_UNIT(*)
SI_UNIT(.CENTI.,.METRE.)
);
#268=(
NAMED_UNIT(*)
PLANE_ANGLE_UNIT()
SI_UNIT($,.RADIAN.)
);
#269=(
NAMED_UNIT(*)
SI_UNIT($,.STERADIAN.)
SOLID_ANGLE_UNIT()
);
#270=SHAPE_DEFINITION_REPRESENTATION(#271,#272);
#271=PRODUCT_DEFINITION_SHAPE('',$,#274);
#272=SHAPE_REPRESENTATION('',(#158),#264);
#273=PRODUCT_DEFINITION_CONTEXT('part definition',#278,'design');
#274=PRODUCT_DEFINITION('D8 50','D8 50',#275,#273);
#275=PRODUCT_DEFINITION_FORMATION('',$,#280);
#276=PRODUCT_RELATED_PRODUCT_CATEGORY('D8 50','D8 50',(#280));
#277=APPLICATION_PROTOCOL_DEFINITION('international standard',
'automotive_design',2009,#278);
#278=APPLICATION_CONTEXT(
'Core Data for Automotive Mechanical Design Process');
#279=PRODUCT_CONTEXT('part definition',#278,'mechanical');
#280=PRODUCT('D8 50','D8 50',$,(#279));
#281=PRESENTATION_STYLE_ASSIGNMENT((#282));
#282=SURFACE_STYLE_USAGE(.BOTH.,#285);
#283=SURFACE_STYLE_RENDERING_WITH_PROPERTIES($,#289,(#284));
#284=SURFACE_STYLE_TRANSPARENT(0.);
#285=SURFACE_SIDE_STYLE('',(#286,#283));
#286=SURFACE_STYLE_FILL_AREA(#287);
#287=FILL_AREA_STYLE('',(#288));
#288=FILL_AREA_STYLE_COLOUR('',#289);
#289=COLOUR_RGB('',0.749019607843137,0.749019607843137,0.749019607843137);
ENDSEC;
END-ISO-10303-21;
