  0
SECTION
  2
HEADER
  9
$ACADVER
  1
AC1009
  9
$INSBASE
 10
0.0
 20
0.0
 30
0.0
  9
$EXTMIN
 10
-341.6666666666665151
 20
-435.9640360201829026
 30
0.0
  9
$EXTMAX
 10
341.6666666666667993
 20
225.0
 30
0.0
  9
$LIMMIN
 10
0.0
 20
0.0
  9
$LIMMAX
 10
420.0
 20
297.0
  9
$ORTHOMODE
 70
     0
  9
$REGENMODE
 70
     1
  9
$FILLMODE
 70
     1
  9
$QTEXTMODE
 70
     0
  9
$MIRRTEXT
 70
     0
  9
$DRAGMODE
 70
     2
  9
$LTSCALE
 40
1.0
  9
$OSMODE
 70
  2751
  9
$ATTMODE
 70
     1
  9
$TEXTSIZE
 40
2.5
  9
$TRACEWID
 40
1.0
  9
$TEXTSTYLE
  7
STANDARD
  9
$CLAYER
  8
0
  9
$CELTYPE
  6
BYLAYER
  9
$CECOLOR
 62
     7
  9
$DIMSCALE
 40
1.0
  9
$DIMASZ
 40
0.18
  9
$DIMEXO
 40
0.0625
  9
$DIMDLI
 40
0.38
  9
$DIMRND
 40
0.0
  9
$DIMDLE
 40
0.0
  9
$DIMEXE
 40
0.18
  9
$DIMTP
 40
0.0
  9
$DIMTM
 40
0.0
  9
$DIMTXT
 40
0.18
  9
$DIMCEN
 40
0.09
  9
$DIMTSZ
 40
0.0
  9
$DIMTOL
 70
     0
  9
$DIMLIM
 70
     0
  9
$DIMTIH
 70
     1
  9
$DIMTOH
 70
     1
  9
$DIMSE1
 70
     0
  9
$DIMSE2
 70
     0
  9
$DIMTAD
 70
     0
  9
$DIMZIN
 70
     0
  9
$DIMBLK
  1

  9
$DIMASO
 70
     1
  9
$DIMSHO
 70
     1
  9
$DIMPOST
  1

  9
$DIMAPOST
  1

  9
$DIMALT
 70
     0
  9
$DIMALTD
 70
     2
  9
$DIMALTF
 40
25.3999999999999986
  9
$DIMLFAC
 40
1.0
  9
$DIMTOFL
 70
     0
  9
$DIMTVP
 40
0.0
  9
$DIMTIX
 70
     0
  9
$DIMSOXD
 70
     0
  9
$DIMSAH
 70
     0
  9
$DIMBLK1
  1

  9
$DIMBLK2
  1

  9
$DIMSTYLE
  2
STANDARD
  9
$DIMCLRD
 70
     0
  9
$DIMCLRE
 70
     0
  9
$DIMCLRT
 70
     0
  9
$DIMTFAC
 40
1.0
  9
$DIMGAP
 40
0.09
  9
$LUNITS
 70
     2
  9
$LUPREC
 70
     8
  9
$SKETCHINC
 40
1.0
  9
$FILLETRAD
 40
0.0
  9
$AUNITS
 70
     0
  9
$AUPREC
 70
     0
  9
$MENU
  1
.
  9
$ELEVATION
 40
0.0
  9
$PELEVATION
 40
0.0
  9
$THICKNESS
 40
0.0
  9
$LIMCHECK
 70
     0
  9
$BLIPMODE
 70
     0
  9
$CHAMFERA
 40
0.0
  9
$CHAMFERB
 40
0.0
  9
$SKPOLY
 70
     0
  9
$TDCREATE
 40
2455533.587210648227483
  9
$TDUPDATE
 40
2459951.6470023151487112
  9
$TDINDWG
 40
8.6689112500000007
  9
$TDUSRTIMER
 40
8.6689110647999996
  9
$USRTIMER
 70
     1
  9
$ANGBASE
 50
0.0
  9
$ANGDIR
 70
     0
  9
$PDMODE
 70
     0
  9
$PDSIZE
 40
0.0
  9
$PLINEWID
 40
0.0
  9
$COORDS
 70
     1
  9
$SPLFRAME
 70
     0
  9
$SPLINETYPE
 70
     6
  9
$SPLINESEGS
 70
     8
  9
$ATTDIA
 70
     1
  9
$ATTREQ
 70
     1
  9
$HANDLING
 70
     1
  9
$HANDSEED
  5
10BD7
  9
$SURFTAB1
 70
     6
  9
$SURFTAB2
 70
     6
  9
$SURFTYPE
 70
     6
  9
$SURFU
 70
     6
  9
$SURFV
 70
     6
  9
$UCSNAME
  2

  9
$UCSORG
 10
0.0
 20
0.0
 30
0.0
  9
$UCSXDIR
 10
1.0
 20
0.0
 30
0.0
  9
$UCSYDIR
 10
0.0
 20
1.0
 30
0.0
  9
$PUCSNAME
  2

  9
$PUCSORG
 10
0.0
 20
0.0
 30
0.0
  9
$PUCSXDIR
 10
1.0
 20
0.0
 30
0.0
  9
$PUCSYDIR
 10
0.0
 20
1.0
 30
0.0
  9
$USERI1
 70
     0
  9
$USERI2
 70
     0
  9
$USERI3
 70
     0
  9
$USERI4
 70
     0
  9
$USERI5
 70
     0
  9
$USERR1
 40
0.0
  9
$USERR2
 40
0.0
  9
$USERR3
 40
0.0
  9
$USERR4
 40
0.0
  9
$USERR5
 40
0.0
  9
$WORLDVIEW
 70
     1
  9
$SHADEDGE
 70
     3
  9
$SHADEDIF
 70
    70
  9
$TILEMODE
 70
     1
  9
$MAXACTVP
 70
    64
  9
$PLIMCHECK
 70
     0
  9
$PEXTMIN
 10
0.0
 20
0.0
 30
0.0
  9
$PEXTMAX
 10
0.0
 20
0.0
 30
0.0
  9
$PLIMMIN
 10
0.0
 20
0.0
  9
$PLIMMAX
 10
12.0
 20
9.0
  9
$UNITMODE
 70
     0
  9
$VISRETAIN
 70
     1
  9
$PLINEGEN
 70
     0
  9
$PSLTSCALE
 70
     1
  0
ENDSEC
  0
SECTION
  2
TABLES
  0
TABLE
  2
VPORT
 70
     1
  0
VPORT
  2
*ACTIVE
 70
     0
 10
0.0
 20
0.0
 11
1.0
 21
1.0
 12
-41.555565620415102
 22
-131.2944284084113065
 13
0.0
 23
0.0
 14
10.0
 24
10.0
 15
10.0
 25
10.0
 16
0.0
 26
0.0
 36
1.0
 17
0.0
 27
0.0
 37
0.0
 40
1164.3257693770719925
 41
2.198717948717948
 42
50.0
 43
0.0
 44
0.0
 50
0.0
 51
0.0
 71
     0
 72
  1000
 73
     1
 74
     3
 75
     0
 76
     0
 77
     0
 78
     0
  0
ENDTAB
  0
TABLE
  2
LTYPE
 70
     2
  0
LTYPE
  2
CONTINUOUS
 70
     0
  3
Solid line
 72
    65
 73
     0
 40
0.0
  0
LTYPE
  2
CENTER
 70
     0
  3
Center ____ _ ____ _ ____ _ ____ _ ____ _ ____
 72
    65
 73
     4
 40
50.7999999999999972
 49
31.75
 49
-6.3499999999999988
 49
6.3499999999999988
 49
-6.3499999999999988
  0
ENDTAB
  0
TABLE
  2
LAYER
 70
     2
  0
LAYER
  2
0
 70
     0
 62
     7
  6
CONTINUOUS
  0
LAYER
  2
DEFPOINTS
 70
     0
 62
     7
  6
CONTINUOUS
  0
ENDTAB
  0
TABLE
  2
STYLE
 70
     2
  0
STYLE
  2
STANDARD
 70
     0
 40
0.0
 41
1.0
 50
0.0
 71
     0
 42
2.5
  3
txt.shx
  4

  0
STYLE
  2
1-1
 70
     0
 40
3.2000000000000002
 41
0.85
 50
0.0
 71
     0
 42
600.0
  3
romans.shx
  4
BIGFONT.shx
  0
ENDTAB
  0
TABLE
  2
VIEW
 70
     0
  0
ENDTAB
  0
TABLE
  2
UCS
 70
     0
  0
ENDTAB
  0
TABLE
  2
APPID
 70
    42
  0
APPID
  2
ACAD
 70
     0
  0
APPID
  2
ACAD_PSEXT
 70
     0
  0
APPID
  2
ACAD_EXEMPT_FROM_CAD_STANDARDS
 70
     0
  0
APPID
  2
ACAECLAYERSTANDARD
 70
     0
  0
APPID
  2
ACAD_DSTYLE_DIMTEXT_FILL
 70
     0
  0
APPID
  2
ACAD_DSTYLE_DIMEXT_LENGTH
 70
     0
  0
APPID
  2
ACAD_DSTYLE_DIMEXT_ENABLED
 70
     0
  0
APPID
  2
ACAD_DSTYLE_DIM_LINETYPE
 70
     0
  0
APPID
  2
ACAD_DSTYLE_DIM_EXT1_LINETYPE
 70
     0
  0
APPID
  2
ACAD_DSTYLE_DIM_EXT2_LINETYPE
 70
     0
  0
APPID
  2
ACAD_DSTYLE_DIMJOGGED_JOGA
 70
     0
  0
APPID
  2
ACAD_DSTYLE_DIMARC_LENGTH_
 70
     0
  0
APPID
  2
MCAD_NO_VIS
 70
     0
  0
APPID
  2
ACAD_TEMP_GRAPHIC
 70
     0
  0
APPID
  2
AD_DRAW
 70
     0
  0
APPID
  2
ACATTRIBSERVICES
 70
     0
  0
APPID
  2
DESIGNERASSEMBLIES
 70
     0
  0
APPID
  2
ACADM_DIM_EDIT
 70
     0
  0
APPID
  2
AMDT_DM_ADJ
 70
     0
  0
APPID
  2
ACAD_DSTYLE_DIMJAG
 70
     0
  0
APPID
  2
ACAD_DSTYLE_DIMBREAK
 70
     0
  0
APPID
  2
ACAD_DSTYLE_DIMINSPECT
 70
     0
  0
APPID
  2
ACDBDYNAMICBLOCKGUID
 70
     0
  0
APPID
  2
GENIUS_GENDIMSH_14
 70
     0
  0
APPID
  2
GENIUS_GENODEF_13
 70
     0
  0
APPID
  2
GENIUS_GENOBJ-N-FIL_13
 70
     0
  0
APPID
  2
GENIUS_GENOBJ-N-CEN_13
 70
     0
  0
APPID
  2
GENIUS_GENCEN_19
 70
     0
  0
APPID
  2
ACAUTHENVIRON
 70
     0
  0
APPID
  2
ACADANNOPO
 70
     0
  0
APPID
  2
GENIUS_GENOBJ-N-HTC_13
 70
     0
  0
APPID
  2
GENIUS_GENHATCH_13
 70
     0
  0
APPID
  2
GENIUS_GENDTOL_13
 70
     0
  0
APPID
  2
ACAD_DSTYLE_DIMRADIAL_EXTENSION
 70
     0
  0
APPID
  2
ACAD_DSTYLE_DIMANGULAR_EXT
 70
     0
  0
APPID
  2
GENIUS_AMGTXT_16
 70
     0
  0
APPID
  2
GRADIENTCOLOR1ACI
 70
     0
  0
APPID
  2
GRADIENTCOLOR2ACI
 70
     0
  0
APPID
  2
ACAD_NAV_VCDISPLAY
 70
     0
  0
APPID
  2
ACCMTRANSPARENCY
 70
     0
  0
APPID
  2
ACAD_MLEADERVER
 70
     0
  0
APPID
  2
ACAD_DSTYLE_DIMTALN
 70
     0
  0
ENDTAB
  0
TABLE
  2
DIMSTYLE
 70
     1
  0
DIMSTYLE
  2
STANDARD
 70
     0
  3

  4

  5

  6

  7

 40
1.0
 41
0.18
 42
0.0625
 43
0.38
 44
0.18
 45
0.0
 46
0.0
 47
0.0
 48
0.0
140
0.18
141
0.09
142
0.0
143
25.3999999999999986
144
1.0
145
0.0
146
1.0
147
0.09
 71
     0
 72
     0
 73
     1
 74
     1
 75
     0
 76
     0
 77
     0
 78
     0
170
     0
171
     2
172
     0
173
     0
174
     0
175
     0
176
     0
177
     0
178
     0
  0
ENDTAB
  0
ENDSEC
  0
SECTION
  2
BLOCKS
  0
BLOCK
  8
0
  2
$MODEL_SPACE
 70
     0
 10
0.0
 20
0.0
 30
0.0
  3
$MODEL_SPACE
  1

  0
ENDBLK
  5
21
  8
0
  0
BLOCK
 67
     1
  8
0
  2
$PAPER_SPACE
 70
     0
 10
0.0
 20
0.0
 30
0.0
  3
$PAPER_SPACE
  1

  0
ENDBLK
  5
D5
 67
     1
  8
0
  0
BLOCK
  8
0
  2
_OPEN
 70
     0
 10
0.0
 20
0.0
 30
0.0
  3
_OPEN
  1

  0
LINE
  5
106C2
  8
0
  6
BYBLOCK
 62
     0
 10
-1.0
 20
0.1666666666666666
 30
0.0
 11
0.0
 21
0.0
 31
0.0
  0
LINE
  5
106C3
  8
0
  6
BYBLOCK
 62
     0
 10
0.0
 20
0.0
 30
0.0
 11
-1.0
 21
-0.1666666666666666
 31
0.0
  0
LINE
  5
106C4
  8
0
  6
BYBLOCK
 62
     0
 10
0.0
 20
0.0
 30
0.0
 11
-1.0
 21
0.0
 31
0.0
  0
ENDBLK
  5
106C5
  8
0
  0
ENDSEC
  0
SECTION
  2
ENTITIES
  0
TEXT
  5
1055A
  8
0
 10
-341.6666666666665151
 20
175.0
 30
0.0
 40
50.0
  1
DMC2T10RD0PY 1S
 72
     4
 11
0.0
 21
200.0
 31
0.0
  0
LINE
  5
10793
  8
0
  6
CENTER
 10
0.0
 20
-207.8540931615023055
 30
0.0
 11
0.0
 21
68.5476041585820326
 31
0.0
  0
LINE
  5
10794
  8
0
 10
5.0
 20
-174.9997997612196059
 30
0.0
 11
5.0
 21
-166.9998597112287939
 31
0.0
  0
LINE
  5
10795
  8
0
 10
-5.0
 20
-174.9997997612196059
 30
0.0
 11
-5.0
 21
-166.9998597112287939
 31
0.0
  0
LINE
  5
10796
  8
0
 10
-82.5
 20
37.2000310162035319
 30
0.0
 11
-82.5
 21
55.2000310162034609
 31
0.0
  0
LINE
  5
10797
  8
0
 10
-27.5000013750000107
 20
-48.3563223803158166
 30
0.0
 11
-12.0000006000000194
 21
-48.3563223803158166
 31
0.0
  0
LINE
  5
10798
  8
0
 10
-26.9998813499941015
 20
-88.9999795612289972
 30
0.0
 11
-26.9998813499939914
 21
-81.2499791737290593
 31
0.0
  0
LINE
  5
10799
  8
0
 10
82.5
 20
55.2000310162034609
 30
0.0
 11
-82.5
 21
55.2000310162034609
 31
0.0
  0
LINE
  5
1079A
  8
0
 10
82.5
 20
37.200031016203468
 30
0.0
 11
-82.5
 21
37.200031016203468
 31
0.0
  0
LINE
  5
1079B
  8
0
 10
-47.5
 20
-16.0000008374999503
 30
0.0
 11
-47.5
 21
15.2000318162034809
 31
0.0
  0
LINE
  5
1079C
  8
0
 10
-27.5000013750000107
 20
-48.3563223803158166
 30
0.0
 11
-27.5000013750000107
 21
-45.5081363886473014
 31
0.0
  0
LINE
  5
1079D
  8
0
 10
-27.5000013750000107
 20
-45.5083322379162993
 30
0.0
 11
27.5000013750000107
 21
-45.5083322379162993
 31
0.0
  0
LINE
  5
1079E
  8
0
 10
-27.5000013750000107
 20
-45.5081363886473014
 30
0.0
 11
-40.4999999999999929
 21
-34.2497954135965301
 31
0.0
  0
LINE
  5
1079F
  8
0
 10
-10.0000005000000503
 20
-63.999978311228972
 30
0.0
 11
-10.0000004999999401
 21
-50.3563224803158391
 31
0.0
  0
LINE
  5
107A0
  8
0
 10
-40.4999999999999929
 20
-34.2497954135965301
 30
0.0
 11
-40.4999999999999929
 21
-33.0000016125000002
 31
0.0
  0
LINE
  5
107A1
  8
0
 10
-27.5000013750000107
 20
-66.7499784487289389
 30
0.0
 11
-27.5000013750000107
 21
-65.9999784112289944
 31
0.0
  0
LINE
  5
107A2
  8
0
 10
-12.0000006000000194
 20
-65.9999784112289944
 30
0.0
 11
-27.5000013750000107
 21
-65.9999784112289944
 31
0.0
  0
LINE
  5
107A3
  8
0
 10
-40.4999999999999929
 20
-34.2500016750000782
 30
0.0
 11
40.4999999999999929
 21
-34.2500016750000782
 31
0.0
  0
LINE
  5
107A4
  8
0
 10
-38.0000018999999085
 20
-81.2499791737290593
 30
0.0
 11
-38.0000018999999085
 21
-66.7499784487289389
 31
0.0
  0
LINE
  5
107A5
  8
0
 10
-38.0000018999999085
 20
-66.7499784487289389
 30
0.0
 11
38.0000018999999085
 21
-66.7499784487289389
 31
0.0
  0
LINE
  5
107A6
  8
0
 10
-38.0000018999999085
 20
-81.2499791737290593
 30
0.0
 11
38.0000018999999085
 21
-81.2499791737290593
 31
0.0
  0
LINE
  5
107A7
  8
0
 10
52.5
 20
-33.0000016125000002
 30
0.0
 11
-52.5
 21
-33.0000016125000002
 31
0.0
  0
LINE
  5
107A8
  8
0
 10
-52.5
 20
-33.0000016125000002
 30
0.0
 11
-52.5
 21
-16.0000008374999503
 31
0.0
  0
LINE
  5
107A9
  8
0
 10
52.5
 20
-16.0000008374999503
 30
0.0
 11
-52.5
 21
-16.0000008374999503
 31
0.0
  0
LINE
  5
107AA
  8
0
 10
-60.6150000000000091
 20
32.7000326662034126
 30
0.0
 11
60.6150000000000091
 21
32.7000326662034126
 31
0.0
  0
LINE
  5
107AB
  8
0
 10
-60.6150000000000091
 20
15.2000318162034809
 30
0.0
 11
60.6150000000000091
 21
15.2000318162034809
 31
0.0
  0
LINE
  5
107AC
  8
0
 10
-60.6150000000000091
 20
15.2000318162034809
 30
0.0
 11
-60.6150000000000091
 21
32.7000326662034126
 31
0.0
  0
LINE
  5
107AD
  8
0
 10
-7.5000003749998987
 20
-198.4999752362290053
 30
0.0
 11
7.5000003749998987
 21
-198.4999752362290053
 31
0.0
  0
LINE
  5
107AE
  8
0
 10
-6.0000003000000097
 20
-199.999975311229008
 30
0.0
 11
6.0000003000000097
 21
-199.999975311229008
 31
0.0
  0
LINE
  5
107AF
  8
0
 10
6.0000103000004401
 20
-199.9999833112293004
 30
0.0
 11
7.5000003749998987
 21
-198.4999752362290053
 31
0.0
  0
LINE
  5
107B0
  8
0
 10
-6.0000003000000097
 20
-199.9999833112293004
 30
0.0
 11
-7.5000203750009851
 21
-198.499971236228788
 31
0.0
  0
LINE
  5
107B1
  8
0
 10
-7.5000203750009851
 20
-177.8658199045206914
 30
0.0
 11
7.4999803749990397
 21
-177.8658199045206914
 31
0.0
  0
LINE
  5
107B2
  8
0
 10
63.0000631500029229
 20
-110.2167106220653068
 30
0.0
 11
63.0000631500029229
 21
-100.7831201503858978
 31
0.0
  0
LINE
  5
107B3
  8
0
 10
64.0653732032685639
 20
-100.7498801487239035
 30
0.0
 11
61.0000430500019704
 21
-100.8456701535133959
 31
0.0
  0
LINE
  5
107B4
  8
0
 10
78.563973928198493
 20
-110.4998606362229054
 30
0.0
 11
78.563973928198493
 21
-100.4998601362230062
 31
0.0
  0
LINE
  5
107B5
  8
0
 10
78.563973928198493
 20
-100.4998601362230062
 30
0.0
 11
66.0640333032013132
 21
-100.4998601362230062
 31
0.0
  0
LINE
  5
107B6
  8
0
 10
78.563973928198493
 20
-110.4998606362229054
 30
0.0
 11
66.0640333032013132
 21
-110.4998606362229054
 31
0.0
  0
LINE
  5
107B7
  8
0
 10
66.0640333032013132
 20
-110.4998606362229054
 30
0.0
 11
66.0640333032013132
 21
-100.4998601362230062
 31
0.0
  0
LINE
  5
107B8
  8
0
 10
66.0640333032013132
 20
-110.2498606237228955
 30
0.0
 11
64.0640332032013333
 21
-110.2498606237228955
 31
0.0
  0
LINE
  5
107B9
  8
0
 10
66.0640333032013132
 20
-100.7498601487230019
 30
0.0
 11
64.0640332032013333
 21
-100.7498601487230019
 31
0.0
  0
LINE
  5
107BA
  8
0
 10
64.0639932031995158
 20
-110.2498906237243972
 30
0.0
 11
60.75910478793935
 21
-110.146607808266694
 31
0.0
  0
LINE
  5
107BB
  8
0
 10
-8.0000204000009472
 20
-175.9997998112197024
 30
0.0
 11
7.9999803999990027
 21
-175.9997998112197024
 31
0.0
  0
LINE
  5
107BC
  8
0
 10
-8.0000204000009472
 20
-175.9997998112197024
 30
0.0
 11
-8.0000204000009472
 21
-174.9997997612196059
 31
0.0
  0
LINE
  5
107BD
  8
0
 10
-8.0000504000024648
 20
-175.999859811222592
 30
0.0
 11
-7.5000403750018441
 21
-177.8659099045250969
 31
0.0
  0
LINE
  5
107BE
  8
0
 10
7.9999803999990027
 20
-175.9997998112197024
 30
0.0
 11
7.9999803999990027
 21
-174.9997997612196059
 31
0.0
  0
LINE
  5
107BF
  8
0
 10
7.4999603749981807
 20
-177.8658699045232083
 30
0.0
 11
7.9999503999974868
 21
-175.9998698112231068
 31
0.0
  0
LINE
  5
107C0
  8
0
 10
-7.5000203750009851
 20
-198.4999752362290053
 30
0.0
 11
-7.5000203750009851
 21
-177.8658199045206914
 31
0.0
  0
LINE
  5
107C1
  8
0
 10
7.5000003749998987
 20
-198.4999752362290053
 30
0.0
 11
7.4999803749990397
 21
-177.8658199045206914
 31
0.0
  0
ARC
  5
107C2
  8
0
 10
-12.0000006000000194
 20
-63.999978311228972
 30
0.0
 40
2.0000000999999989
 50
270.0
 51
0.0
  0
ARC
  5
107C3
  8
0
 10
-12.0000006000000194
 20
-50.3563224803158391
 30
0.0
 40
2.0000000999999989
 50
0.0
 51
90.0000029999976903
  0
LINE
  5
107C4
  8
0
 10
-8.0000204000009472
 20
-174.9997997612196059
 30
0.0
 11
7.9999803999990027
 21
-174.9997997612196059
 31
0.0
  0
LINE
  5
107C5
  8
0
 10
113.5764422395310049
 20
-11.2331663757358893
 30
0.0
 11
95.9331663757358228
 21
-28.8764422395310589
 31
0.0
  0
LINE
  5
107C6
  8
0
 10
92.1455537750395024
 20
-43.1544462249603313
 30
0.0
 11
127.8544462249601992
 21
-7.4455537750397411
 31
0.0
  0
LINE
  5
107C7
  8
0
 10
90.7135034853380233
 20
-40.5559878618984726
 30
0.0
 11
125.2559878618984044
 21
-6.0135034853382763
 31
0.0
  0
LINE
  5
107C8
  8
0
 10
94.7843055045009351
 20
-28.0448177466392394
 30
0.0
 11
86.8789755157248464
 21
-20.1394877578633213
 31
0.0
  0
ARC
  5
107C9
  8
0
 10
93.3700919421279565
 20
-29.4590313090123495
 30
0.0
 40
2.0
 50
335.0000000000010232
 51
45.0000000000078373
1001
GENIUS_GENOBJ-N-FIL_13
1002
{
1000
OWNER
1000
GEN
1002
}
1001
GENIUS_GENODEF_13
1002
{
1000
HIER
1070
     0
1002
}
1002
{
1000
MANEDIT
1070
     0
1002
}
1002
{
1000
NOSEL
1070
     0
1002
}
1002
{
1000
BEHIND
1070
     0
1002
}
1002
{
1000
OTHER
1070
     0
1002
}
1002
{
1000
REACTOR
1002
}
  0
LINE
  5
107CA
  8
0
 10
92.1455537750395024
 20
-43.1544462249603313
 30
0.0
 11
90.526396647462775
 21
-41.5352890973834974
 31
0.0
  0
LINE
  5
107CB
  8
0
 10
90.3670358427826841
 20
-40.6315090630416691
 30
0.0
 11
95.1827075162010487
 21
-30.3042678324937391
 31
0.0
  0
ARC
  5
107CC
  8
0
 10
91.0920820724119267
 20
-40.9696036724342818
 30
0.0
 40
0.8
 50
155.0000000000009095
 51
225.0000000000077875
1001
GENIUS_GENOBJ-N-FIL_13
1002
{
1000
OWNER
1000
GEN
1002
}
1001
GENIUS_GENODEF_13
1002
{
1000
HIER
1070
     0
1002
}
1002
{
1000
MANEDIT
1070
     0
1002
}
1002
{
1000
NOSEL
1070
     0
1002
}
1002
{
1000
BEHIND
1070
     0
1002
}
1002
{
1000
OTHER
1070
     0
1002
}
1002
{
1000
REACTOR
1002
}
  0
LINE
  5
107CD
  8
0
 10
112.7448177466392991
 20
-10.0843055045011702
 30
0.0
 11
104.8394877578634947
 21
-2.1789755157252548
 31
0.0
  0
ARC
  5
107CE
  8
0
 10
114.1590313090124056
 20
-8.6700919421280673
 30
0.0
 40
2.0
 50
225.0000000000077875
 51
294.999999999992383
1001
GENIUS_GENOBJ-N-FIL_13
1002
{
1000
OWNER
1000
GEN
1002
}
1001
GENIUS_GENODEF_13
1002
{
1000
HIER
1070
     0
1002
}
1002
{
1000
MANEDIT
1070
     0
1002
}
1002
{
1000
NOSEL
1070
     0
1002
}
1002
{
1000
BEHIND
1070
     0
1002
}
1002
{
1000
OTHER
1070
     0
1002
}
1002
{
1000
REACTOR
1002
}
  0
LINE
  5
107CF
  8
0
 10
127.8544462249601992
 20
-7.4455537750397411
 30
0.0
 11
126.2352890973835002
 21
-5.826396647462956
 31
0.0
  0
LINE
  5
107D0
  8
0
 10
125.3315090630415938
 20
-5.6670358427828651
 30
0.0
 11
115.0042678324936958
 21
-10.4827075162012893
 31
0.0
  0
ARC
  5
107D1
  8
0
 10
125.6696036724342065
 20
-6.3920820724122223
 30
0.0
 40
0.8
 50
45.0000000000078373
 51
114.9999999999923972
1001
GENIUS_GENOBJ-N-FIL_13
1002
{
1000
OWNER
1000
GEN
1002
}
1001
GENIUS_GENODEF_13
1002
{
1000
HIER
1070
     0
1002
}
1002
{
1000
MANEDIT
1070
     0
1002
}
1002
{
1000
NOSEL
1070
     0
1002
}
1002
{
1000
BEHIND
1070
     0
1002
}
1002
{
1000
OTHER
1070
     0
1002
}
1002
{
1000
REACTOR
1002
}
  0
ARC
  5
107D2
  8
0
  6
CENTER
 10
68.9184632735883724
 20
-38.1000000000000227
 30
0.0
 40
38.1000000000000014
 50
45.0000000000078373
 51
90.0
  0
ARC
  5
107D3
  8
0
 10
68.9184632735883724
 20
-38.1000000000000227
 30
0.0
 40
25.3999999999999986
 50
45.0000000000078373
 51
90.0
  0
ARC
  5
107D4
  8
0
 10
68.9184632735883724
 20
-38.1000000000000227
 30
0.0
 40
50.7999999999999972
 50
45.0000000000078373
 51
90.0208241668499056
  0
LINE
  5
107D5
  8
0
 10
82.5
 20
37.2000310162035319
 30
0.0
 11
82.5
 21
55.2000310162034609
 31
0.0
  0
LINE
  5
107D6
  8
0
 10
27.5000013750000107
 20
-48.3563223803158166
 30
0.0
 11
12.0000006000000194
 21
-48.3563223803158166
 31
0.0
  0
LINE
  5
107D7
  8
0
 10
26.9998813499941015
 20
-88.9999795612289972
 30
0.0
 11
26.9998813499939914
 21
-81.2499791737290593
 31
0.0
  0
LINE
  5
107D8
  8
0
  6
CENTER
 10
-68.9184632735884861
 20
0.0
 30
0.0
 11
68.9184632735883724
 21
0.0
 31
0.0
  0
LINE
  5
107D9
  8
0
 10
47.5
 20
-16.0000008374999503
 30
0.0
 11
47.5
 21
15.2000318162034809
 31
0.0
  0
LINE
  5
107DA
  8
0
 10
27.5000013750000107
 20
-48.3563223803158166
 30
0.0
 11
27.5000013750000107
 21
-45.5081363886473014
 31
0.0
  0
LINE
  5
107DB
  8
0
 10
27.5000013750000107
 20
-66.7499784487289389
 30
0.0
 11
27.5000013750000107
 21
-65.9999784112289944
 31
0.0
  0
LINE
  5
107DC
  8
0
 10
12.0000006000000194
 20
-65.9999784112289944
 30
0.0
 11
27.5000013750000107
 21
-65.9999784112289944
 31
0.0
  0
LINE
  5
107DD
  8
0
 10
38.0000018999999085
 20
-81.2499791737290593
 30
0.0
 11
38.0000018999999085
 21
-66.7499784487289389
 31
0.0
  0
LINE
  5
107DE
  8
0
 10
52.5
 20
-33.0000016125000002
 30
0.0
 11
52.5
 21
-16.0000008374999503
 31
0.0
  0
LINE
  5
107DF
  8
0
 10
60.6150000000000091
 20
15.2000318162034809
 30
0.0
 11
60.6150000000000091
 21
32.7000326662034126
 31
0.0
  0
LINE
  5
107E0
  8
0
 10
68.9184632735883724
 20
12.6999999999999904
 30
0.0
 11
47.4999999999998792
 21
12.6999999999999904
 31
0.0
  0
LINE
  5
107E1
  8
0
 10
68.9184632735883724
 20
-12.7000000000000401
 30
0.0
 11
47.4999999999998792
 21
-12.6999999999999904
 31
0.0
  0
LINE
  5
107E2
  8
0
 10
10.0000005000000503
 20
-63.999978311228972
 30
0.0
 11
10.0000004999999401
 21
-50.3563224803158391
 31
0.0
  0
ARC
  5
107E3
  8
0
 10
12.0000006000000194
 20
-63.999978311228972
 30
0.0
 40
2.0000000999999989
 50
180.0
 51
270.0
  0
ARC
  5
107E4
  8
0
 10
12.0000006000000194
 20
-50.3563224803158391
 30
0.0
 40
2.0000000999999989
 50
89.9999970000022955
 51
180.0
  0
LINE
  5
107E5
  8
0
 10
25.0000000000003411
 20
-161.9998597112287939
 30
0.0
 11
25.0000000000003411
 21
-165.9999753112282974
 31
0.0
  0
LINE
  5
107E6
  8
0
 10
53.0000000000003411
 20
-145.1254597112287001
 30
0.0
 11
53.0000000000003411
 21
-118.9967997112289027
 31
0.0
  0
LINE
  5
107E7
  8
0
 10
61.0000600000004169
 20
-108.6131397112287971
 30
0.0
 11
61.0000600000004169
 21
-91.9999797112289457
 31
0.0
  0
LINE
  5
107E8
  8
0
 10
58.5125400000002927
 20
-111.4999197112288982
 30
0.0
 11
-58.5119999999996026
 21
-111.4999197112288982
 31
0.0
  0
LINE
  5
107E9
  8
0
 10
53.0000000000003411
 20
-116.1187597112288046
 30
0.0
 11
-52.9999999999996589
 21
-116.1187597112288046
 31
0.0
  0
LINE
  5
107EA
  8
0
 10
52.401400000000308
 20
-146.8887797112286933
 30
0.0
 11
-52.3955599999995911
 21
-146.8887797112286933
 31
0.0
  0
LINE
  5
107EB
  8
0
 10
-49.4158799999996674
 20
-156.7360597112287905
 30
0.0
 11
-52.3969199999995681
 21
-148.5456997112289059
 31
0.0
  0
LINE
  5
107EC
  8
0
 10
-55.4999799999994821
 20
-114.6753397112288013
 30
0.0
 11
-58.5000399999995508
 21
-112.9432797112287972
 31
0.0
  0
LINE
  5
107ED
  8
0
 10
41.898340000000303
 20
-161.9998597112287939
 30
0.0
 11
-41.8983399999996209
 21
-161.9998597112287939
 31
0.0
  0
LINE
  5
107EE
  8
0
 10
-52.9999999999996589
 20
-145.1254597112287001
 30
0.0
 11
-52.9999999999996589
 21
-118.9967997112289027
 31
0.0
  0
LINE
  5
107EF
  8
0
 10
-61.0000599999997277
 20
-108.6131397112287971
 30
0.0
 11
-61.0000599999997277
 21
-91.999979711228832
 31
0.0
  0
LINE
  5
107F0
  8
0
 10
-24.9999999999996589
 20
-161.9998597112287939
 30
0.0
 11
-24.9999999999996589
 21
-165.9999753112282974
 31
0.0
  0
LINE
  5
107F1
  8
0
 10
61.0000600000004169
 20
-96.4999197112288556
 30
0.0
 11
-61.0000599999997277
 21
-96.4999197112288556
 31
0.0
  0
LINE
  5
107F2
  8
0
 10
55.4999600000004421
 20
-114.6753397112288013
 30
0.0
 11
58.5107200000003402
 21
-112.937119711228803
 31
0.0
  0
LINE
  5
107F3
  8
0
 10
49.4159000000005335
 20
-156.7360597112287905
 30
0.0
 11
52.39694000000042
 21
-148.5456997112289059
 31
0.0
  0
LINE
  5
107F4
  8
0
 10
-61.0000599999997277
 20
-91.999979711228832
 30
0.0
 11
61.0000600000004169
 21
-91.9999797112289457
 31
0.0
  0
LINE
  5
107F5
  8
0
 10
-43.0644399999995287
 20
-88.9999797112288462
 30
0.0
 11
-4.9999999999996581
 21
-88.9999797112288462
 31
0.0
  0
LINE
  5
107F6
  8
0
 10
4.3071600000004082
 20
-84.499979711228832
 30
0.0
 11
4.9999600000004421
 21
-84.8999397112287966
 31
0.0
  0
LINE
  5
107F7
  8
0
 10
-4.3071799999996747
 20
-84.499979711228832
 30
0.0
 11
-4.9999999999996581
 21
-84.8999397112287966
 31
0.0
  0
LINE
  5
107F8
  8
0
 10
-4.9999999999996581
 20
-84.8999397112287966
 30
0.0
 11
5.0000000000003411
 21
-84.8999397112287966
 31
0.0
  0
LINE
  5
107F9
  8
0
 10
-4.3071799999996747
 20
-84.499979711228832
 30
0.0
 11
4.3071600000004082
 21
-84.499979711228832
 31
0.0
  0
LINE
  5
107FA
  8
0
 10
-4.9999999999996581
 20
-89.6999397112287511
 30
0.0
 11
5.0000000000003411
 21
-89.6999397112287511
 31
0.0
  0
LINE
  5
107FB
  8
0
 10
-4.9999999999996581
 20
-84.8999397112287966
 30
0.0
 11
-4.9999999999996581
 21
-91.999979711228832
 31
0.0
  0
LINE
  5
107FC
  8
0
 10
-4.9999999999996581
 20
-90.4999797112288178
 30
0.0
 11
5.0000000000003411
 21
-90.4999797112288178
 31
0.0
  0
LINE
  5
107FD
  8
0
 10
5.0000000000003411
 20
-84.8999397112287966
 30
0.0
 11
5.0000000000003411
 21
-91.999979711228832
 31
0.0
  0
LINE
  5
107FE
  8
0
 10
-53.0644399999995287
 20
-84.8999397112287966
 30
0.0
 11
-53.0644399999995287
 21
-91.999979711228832
 31
0.0
  0
LINE
  5
107FF
  8
0
 10
-53.0644399999995287
 20
-90.4999797112288178
 30
0.0
 11
-43.0644399999995287
 21
-90.4999797112288178
 31
0.0
  0
LINE
  5
10800
  8
0
 10
-52.3716199999995524
 20
-84.499979711228832
 30
0.0
 11
-53.0644399999995287
 21
-84.8999997112288725
 31
0.0
  0
LINE
  5
10801
  8
0
 10
-53.0644399999995287
 20
-89.6999397112287511
 30
0.0
 11
-43.0644399999995287
 21
-89.6999397112287511
 31
0.0
  0
LINE
  5
10802
  8
0
 10
-52.3716199999995524
 20
-84.499979711228832
 30
0.0
 11
-43.7572799999996889
 21
-84.499979711228832
 31
0.0
  0
LINE
  5
10803
  8
0
 10
-53.0644399999995287
 20
-84.8999397112287966
 30
0.0
 11
-43.0644399999995287
 21
-84.8999397112287966
 31
0.0
  0
LINE
  5
10804
  8
0
 10
-43.7572799999996889
 20
-84.499979711228832
 30
0.0
 11
-43.0643999999996296
 21
-84.8999997112288725
 31
0.0
  0
LINE
  5
10805
  8
0
 10
-43.0644399999995287
 20
-84.8999397112287966
 30
0.0
 11
-43.0644399999995287
 21
-91.999979711228832
 31
0.0
  0
LINE
  5
10806
  8
0
 10
-23.9999999999996589
 20
-166.999975311229008
 30
0.0
 11
24.0000000000003411
 21
-166.999975311229008
 31
0.0
  0
LINE
  5
10807
  8
0
 10
43.0644200000004886
 20
-88.9999797112288462
 30
0.0
 11
5.0000000000003411
 21
-88.9999797112288462
 31
0.0
  0
LINE
  5
10808
  8
0
 10
53.0644200000005029
 20
-84.8999397112287966
 30
0.0
 11
53.0644200000005029
 21
-91.999979711228832
 31
0.0
  0
LINE
  5
10809
  8
0
 10
53.0644200000005029
 20
-90.4999797112288178
 30
0.0
 11
43.0644200000004886
 21
-90.4999797112288178
 31
0.0
  0
LINE
  5
1080A
  8
0
 10
52.3716200000004619
 20
-84.499979711228832
 30
0.0
 11
53.0644200000005029
 21
-84.8999397112287966
 31
0.0
  0
LINE
  5
1080B
  8
0
 10
53.0644200000005029
 20
-89.6999397112287511
 30
0.0
 11
43.0644200000004886
 21
-89.6999397112287511
 31
0.0
  0
LINE
  5
1080C
  8
0
 10
52.3716200000004619
 20
-84.499979711228832
 30
0.0
 11
43.7572600000004215
 21
-84.499979711228832
 31
0.0
  0
LINE
  5
1080D
  8
0
 10
53.0644200000005029
 20
-84.8999397112287966
 30
0.0
 11
43.0644200000004886
 21
-84.8999397112287966
 31
0.0
  0
LINE
  5
1080E
  8
0
 10
43.75732000000027
 20
-84.499979711228832
 30
0.0
 11
43.0644600000003877
 21
-84.8999997112288725
 31
0.0
  0
LINE
  5
1080F
  8
0
 10
43.0644200000004886
 20
-84.8999397112287966
 30
0.0
 11
43.0644200000004886
 21
-91.999979711228832
 31
0.0
  0
ARC
  5
10810
  8
0
 10
43.0000000000003411
 20
-145.1254597112287001
 30
0.0
 40
10.0
 50
339.9998299999933238
 51
0.0
  0
ARC
  5
10811
  8
0
 10
-41.8983399999996209
 20
-153.9998597112287939
 30
0.0
 40
8.0
 50
199.9998800000107053
 51
270.0
  0
ARC
  5
10812
  8
0
 10
41.898340000000303
 20
-153.9998597112287939
 30
0.0
 40
8.0
 50
270.0
 51
340.000119999989181
  0
ARC
  5
10813
  8
0
 10
-42.9999999999996589
 20
-145.1254597112287001
 30
0.0
 40
10.0
 50
180.0
 51
200.0001400000058993
  0
ARC
  5
10814
  8
0
 10
-56.0000599999997277
 20
-108.6131997112289014
 30
0.0
 40
5.0
 50
180.0
 51
240.0000699999829976
  0
ARC
  5
10815
  8
0
 10
-57.9999999999996589
 20
-119.0054797112288014
 30
0.0
 40
5.0
 50
0.0
 51
60.0000699999830118
  0
ARC
  5
10816
  8
0
 10
-23.9999999999996589
 20
-165.999975311229008
 30
0.0
 40
1.0
 50
180.0
 51
270.0
  0
ARC
  5
10817
  8
0
 10
56.0000600000004169
 20
-108.6131997112289014
 30
0.0
 40
5.0
 50
299.9999300000170024
 51
0.0
  0
ARC
  5
10818
  8
0
 10
24.0000000000003411
 20
-165.999975311229008
 30
0.0
 40
1.0
 50
270.0
 51
0.0
  0
ARC
  5
10819
  8
0
 10
58.0000000000003411
 20
-119.0054797112288014
 30
0.0
 40
5.0
 50
119.9999300000170024
 51
180.0
  0
LINE
  5
1081A
  8
0
 10
-113.5764422395311044
 20
-11.2331663757358893
 30
0.0
 11
-95.9331663757359365
 21
-28.8764422395310589
 31
0.0
  0
LINE
  5
1081B
  8
0
 10
-92.1455537750396161
 20
-43.1544462249603313
 30
0.0
 11
-127.8544462249603981
 21
-7.4455537750397411
 31
0.0
  0
LINE
  5
1081C
  8
0
 10
-90.7135034853381512
 20
-40.5559878618984726
 30
0.0
 11
-125.2559878618985039
 21
-6.0135034853382763
 31
0.0
  0
LINE
  5
1081D
  8
0
 10
-94.7843055045009351
 20
-28.0448177466392394
 30
0.0
 11
-86.8789755157249459
 21
-20.1394877578633213
 31
0.0
  0
ARC
  5
1081E
  8
0
 10
-93.370091942128056
 20
-29.4590313090123495
 30
0.0
 40
2.0
 50
134.9999999999922125
 51
204.9999999999990052
1001
GENIUS_GENOBJ-N-FIL_13
1002
{
1000
OWNER
1000
GEN
1002
}
1001
GENIUS_GENODEF_13
1002
{
1000
HIER
1070
     0
1002
}
1002
{
1000
MANEDIT
1070
     0
1002
}
1002
{
1000
NOSEL
1070
     0
1002
}
1002
{
1000
BEHIND
1070
     0
1002
}
1002
{
1000
OTHER
1070
     0
1002
}
1002
{
1000
REACTOR
1002
}
  0
LINE
  5
1081F
  8
0
 10
-92.1455537750396161
 20
-43.1544462249603313
 30
0.0
 11
-90.5263966474628887
 21
-41.5352890973834974
 31
0.0
  0
LINE
  5
10820
  8
0
 10
-127.8544462249603981
 20
-7.4455537750397411
 30
0.0
 11
-126.2352888374439033
 21
-5.8263963875234017
 31
0.0
  0
LINE
  5
10821
  8
0
 10
-90.3670358427827978
 20
-40.6315090630416691
 30
0.0
 11
-95.1827075162011624
 21
-30.3042678324937391
 31
0.0
  0
ARC
  5
10822
  8
0
 10
-91.0920820724120404
 20
-40.9696036724342818
 30
0.0
 40
0.8
 50
314.9999999999922125
 51
24.9999999999990798
1001
GENIUS_GENOBJ-N-FIL_13
1002
{
1000
OWNER
1000
GEN
1002
}
1001
GENIUS_GENODEF_13
1002
{
1000
HIER
1070
     0
1002
}
1002
{
1000
MANEDIT
1070
     0
1002
}
1002
{
1000
NOSEL
1070
     0
1002
}
1002
{
1000
BEHIND
1070
     0
1002
}
1002
{
1000
OTHER
1070
     0
1002
}
1002
{
1000
REACTOR
1002
}
  0
LINE
  5
10823
  8
0
 10
-112.7448177466393986
 20
-10.0843055045011702
 30
0.0
 11
-104.8394877578634947
 21
-2.1789755157252548
 31
0.0
  0
ARC
  5
10824
  8
0
 10
-114.1590313090125051
 20
-8.6700919421280673
 30
0.0
 40
2.0
 50
245.0000000000075886
 51
314.9999999999922125
1001
GENIUS_GENOBJ-N-FIL_13
1002
{
1000
OWNER
1000
GEN
1002
}
1001
GENIUS_GENODEF_13
1002
{
1000
HIER
1070
     0
1002
}
1002
{
1000
MANEDIT
1070
     0
1002
}
1002
{
1000
NOSEL
1070
     0
1002
}
1002
{
1000
BEHIND
1070
     0
1002
}
1002
{
1000
OTHER
1070
     0
1002
}
1002
{
1000
REACTOR
1002
}
  0
LINE
  5
10825
  8
0
 10
-125.3315090630416933
 20
-5.6670358427828651
 30
0.0
 11
-115.0042678324938947
 21
-10.4827075162012893
 31
0.0
  0
ARC
  5
10826
  8
0
 10
-125.6696036724342065
 20
-6.3920820724122223
 30
0.0
 40
0.8
 50
65.0000000000075744
 51
134.9999999999922125
1001
GENIUS_GENOBJ-N-FIL_13
1002
{
1000
OWNER
1000
GEN
1002
}
1001
GENIUS_GENODEF_13
1002
{
1000
HIER
1070
     0
1002
}
1002
{
1000
MANEDIT
1070
     0
1002
}
1002
{
1000
NOSEL
1070
     0
1002
}
1002
{
1000
BEHIND
1070
     0
1002
}
1002
{
1000
OTHER
1070
     0
1002
}
1002
{
1000
REACTOR
1002
}
  0
ARC
  5
10827
  8
0
  6
CENTER
 10
-68.9184632735884861
 20
-38.1000000000000227
 30
0.0
 40
38.1000000000000014
 50
90.0
 51
134.9999999999922125
  0
ARC
  5
10828
  8
0
 10
-68.9184632735884861
 20
-38.1000000000000227
 30
0.0
 40
25.3999999999999986
 50
90.0
 51
134.9999999999922125
  0
ARC
  5
10829
  8
0
 10
-68.9184632735884861
 20
-38.1000000000000227
 30
0.0
 40
50.7999999999999972
 50
89.9791758331631115
 51
134.9999999999922125
  0
LINE
  5
1082A
  8
0
 10
-68.9000000000103228
 20
12.6999966447590396
 30
0.0
 11
-47.5
 21
12.6999999999999904
 31
0.0
  0
LINE
  5
1082B
  8
0
 10
-68.9184632735884861
 20
-12.7000000000000401
 30
0.0
 11
-47.5
 21
-12.7000000000000401
 31
0.0
  0
LINE
  5
1082C
  8
0
  6
CENTER
 10
-112.2264973302701065
 20
-27.5264973302701605
 30
0.0
 11
-95.8592316367944335
 21
-11.15923163679434
 31
0.0
  0
LINE
  5
1082D
  8
0
  6
CENTER
 10
120.3286110284211929
 20
-35.6286110284213535
 30
0.0
 11
95.8592316367941066
 21
-11.1592316367941695
 31
0.0
  0
LINE
  5
1082E
  8
0
  6
CENTER
 10
0.0
 20
-435.9640360201829026
 30
0.0
 11
0.0
 21
-252.6359019474101899
 31
0.0
  0
LINE
  5
1082F
  8
0
 10
-92.5530817970302451
 20
-356.9999689837965775
 30
0.0
 11
-59.6633822505731288
 21
-356.9999689837965775
 31
0.0
  0
LINE
  5
10830
  8
0
 10
-92.5530817970302451
 20
-331.5999689837966002
 30
0.0
 11
-59.6633822505731288
 21
-331.5999689837966002
 31
0.0
  0
POLYLINE
  5
10831
  8
0
 10
-110.0
 20
-319.0499689837965889
 30
0.0
 66
     1
 70
     8
  0
VERTEX
  8
0
  5
108CB
 10
-110.000
 20
-319.050
 30
0.00000
  70
    32
  0
VERTEX
  8
0
  5
108CC
 10
-110.876
 20
-319.080
 30
0.00000
  70
    32
  0
VERTEX
  8
0
  5
108CD
 10
-111.750
 20
-319.172
 30
0.00000
  70
    32
  0
VERTEX
  8
0
  5
108CE
 10
-112.620
 20
-319.323
 30
0.00000
  70
    32
  0
VERTEX
  8
0
  5
108CF
 10
-113.483
 20
-319.535
 30
0.00000
  70
    32
  0
VERTEX
  8
0
  5
108D0
 10
-114.338
 20
-319.807
 30
0.00000
  70
    32
  0
VERTEX
  8
0
  5
108D1
 10
-115.183
 20
-320.137
 30
0.00000
  70
    32
  0
VERTEX
  8
0
  5
108D2
 10
-116.015
 20
-320.526
 30
0.00000
  70
    32
  0
VERTEX
  8
0
  5
108D3
 10
-116.833
 20
-320.972
 30
0.00000
  70
    32
  0
VERTEX
  8
0
  5
108D4
 10
-117.634
 20
-321.474
 30
0.00000
  70
    32
  0
VERTEX
  8
0
  5
108D5
 10
-118.417
 20
-322.031
 30
0.00000
  70
    32
  0
VERTEX
  8
0
  5
108D6
 10
-119.179
 20
-322.642
 30
0.00000
  70
    32
  0
VERTEX
  8
0
  5
108D7
 10
-119.919
 20
-323.305
 30
0.00000
  70
    32
  0
VERTEX
  8
0
  5
108D8
 10
-120.636
 20
-324.019
 30
0.00000
  70
    32
  0
VERTEX
  8
0
  5
108D9
 10
-121.327
 20
-324.781
 30
0.00000
  70
    32
  0
VERTEX
  8
0
  5
108DA
 10
-121.990
 20
-325.591
 30
0.00000
  70
    32
  0
VERTEX
  8
0
  5
108DB
 10
-122.625
 20
-326.446
 30
0.00000
  70
    32
  0
VERTEX
  8
0
  5
108DC
 10
-123.229
 20
-327.343
 30
0.00000
  70
    32
  0
VERTEX
  8
0
  5
108DD
 10
-123.802
 20
-328.282
 30
0.00000
  70
    32
  0
VERTEX
  8
0
  5
108DE
 10
-124.341
 20
-329.259
 30
0.00000
  70
    32
  0
VERTEX
  8
0
  5
108DF
 10
-124.845
 20
-330.272
 30
0.00000
  70
    32
  0
VERTEX
  8
0
  5
108E0
 10
-125.314
 20
-331.319
 30
0.00000
  70
    32
  0
VERTEX
  8
0
  5
108E1
 10
-125.746
 20
-332.397
 30
0.00000
  70
    32
  0
VERTEX
  8
0
  5
108E2
 10
-126.140
 20
-333.504
 30
0.00000
  70
    32
  0
VERTEX
  8
0
  5
108E3
 10
-126.495
 20
-334.637
 30
0.00000
  70
    32
  0
VERTEX
  8
0
  5
108E4
 10
-126.811
 20
-335.794
 30
0.00000
  70
    32
  0
VERTEX
  8
0
  5
108E5
 10
-127.086
 20
-336.970
 30
0.00000
  70
    32
  0
VERTEX
  8
0
  5
108E6
 10
-127.319
 20
-338.165
 30
0.00000
  70
    32
  0
VERTEX
  8
0
  5
108E7
 10
-127.511
 20
-339.374
 30
0.00000
  70
    32
  0
VERTEX
  8
0
  5
108E8
 10
-127.661
 20
-340.595
 30
0.00000
  70
    32
  0
VERTEX
  8
0
  5
108E9
 10
-127.768
 20
-341.825
 30
0.00000
  70
    32
  0
VERTEX
  8
0
  5
108EA
 10
-127.833
 20
-343.061
 30
0.00000
  70
    32
  0
VERTEX
  8
0
  5
108EB
 10
-127.854
 20
-344.300
 30
0.00000
  70
    32
  0
VERTEX
  8
0
  5
108EC
 10
-127.833
 20
-345.539
 30
0.00000
  70
    32
  0
VERTEX
  8
0
  5
108ED
 10
-127.768
 20
-346.775
 30
0.00000
  70
    32
  0
VERTEX
  8
0
  5
108EE
 10
-127.661
 20
-348.005
 30
0.00000
  70
    32
  0
VERTEX
  8
0
  5
108EF
 10
-127.511
 20
-349.226
 30
0.00000
  70
    32
  0
VERTEX
  8
0
  5
108F0
 10
-127.319
 20
-350.435
 30
0.00000
  70
    32
  0
VERTEX
  8
0
  5
108F1
 10
-127.086
 20
-351.630
 30
0.00000
  70
    32
  0
VERTEX
  8
0
  5
108F2
 10
-126.811
 20
-352.806
 30
0.00000
  70
    32
  0
VERTEX
  8
0
  5
108F3
 10
-126.495
 20
-353.963
 30
0.00000
  70
    32
  0
VERTEX
  8
0
  5
108F4
 10
-126.140
 20
-355.096
 30
0.00000
  70
    32
  0
VERTEX
  8
0
  5
108F5
 10
-125.746
 20
-356.203
 30
0.00000
  70
    32
  0
VERTEX
  8
0
  5
108F6
 10
-125.314
 20
-357.281
 30
0.00000
  70
    32
  0
VERTEX
  8
0
  5
108F7
 10
-124.845
 20
-358.328
 30
0.00000
  70
    32
  0
VERTEX
  8
0
  5
108F8
 10
-124.341
 20
-359.341
 30
0.00000
  70
    32
  0
VERTEX
  8
0
  5
108F9
 10
-123.802
 20
-360.318
 30
0.00000
  70
    32
  0
VERTEX
  8
0
  5
108FA
 10
-123.229
 20
-361.257
 30
0.00000
  70
    32
  0
VERTEX
  8
0
  5
108FB
 10
-122.625
 20
-362.154
 30
0.00000
  70
    32
  0
VERTEX
  8
0
  5
108FC
 10
-121.990
 20
-363.009
 30
0.00000
  70
    32
  0
VERTEX
  8
0
  5
108FD
 10
-121.327
 20
-363.818
 30
0.00000
  70
    32
  0
VERTEX
  8
0
  5
108FE
 10
-120.636
 20
-364.581
 30
0.00000
  70
    32
  0
VERTEX
  8
0
  5
108FF
 10
-119.919
 20
-365.295
 30
0.00000
  70
    32
  0
VERTEX
  8
0
  5
10900
 10
-119.179
 20
-365.958
 30
0.00000
  70
    32
  0
VERTEX
  8
0
  5
10901
 10
-118.417
 20
-366.568
 30
0.00000
  70
    32
  0
VERTEX
  8
0
  5
10902
 10
-117.634
 20
-367.126
 30
0.00000
  70
    32
  0
VERTEX
  8
0
  5
10903
 10
-116.833
 20
-367.628
 30
0.00000
  70
    32
  0
VERTEX
  8
0
  5
10904
 10
-116.015
 20
-368.074
 30
0.00000
  70
    32
  0
VERTEX
  8
0
  5
10905
 10
-115.183
 20
-368.463
 30
0.00000
  70
    32
  0
VERTEX
  8
0
  5
10906
 10
-114.338
 20
-368.793
 30
0.00000
  70
    32
  0
VERTEX
  8
0
  5
10907
 10
-113.483
 20
-369.065
 30
0.00000
  70
    32
  0
VERTEX
  8
0
  5
10908
 10
-112.620
 20
-369.277
 30
0.00000
  70
    32
  0
VERTEX
  8
0
  5
10909
 10
-111.750
 20
-369.428
 30
0.00000
  70
    32
  0
VERTEX
  8
0
  5
1090A
 10
-110.876
 20
-369.520
 30
0.00000
  70
    32
  0
VERTEX
  8
0
  5
1090B
 10
-110.000
 20
-369.550
 30
0.00000
  70
    32
  0
VERTEX
  8
0
  5
1090C
 10
-109.124
 20
-369.520
 30
0.00000
  70
    32
  0
VERTEX
  8
0
  5
1090D
 10
-108.250
 20
-369.428
 30
0.00000
  70
    32
  0
VERTEX
  8
0
  5
1090E
 10
-107.380
 20
-369.277
 30
0.00000
  70
    32
  0
VERTEX
  8
0
  5
1090F
 10
-106.517
 20
-369.065
 30
0.00000
  70
    32
  0
VERTEX
  8
0
  5
10910
 10
-105.662
 20
-368.793
 30
0.00000
  70
    32
  0
VERTEX
  8
0
  5
10911
 10
-104.817
 20
-368.463
 30
0.00000
  70
    32
  0
VERTEX
  8
0
  5
10912
 10
-103.985
 20
-368.074
 30
0.00000
  70
    32
  0
VERTEX
  8
0
  5
10913
 10
-103.167
 20
-367.628
 30
0.00000
  70
    32
  0
VERTEX
  8
0
  5
10914
 10
-102.366
 20
-367.126
 30
0.00000
  70
    32
  0
VERTEX
  8
0
  5
10915
 10
-101.583
 20
-366.568
 30
0.00000
  70
    32
  0
VERTEX
  8
0
  5
10916
 10
-100.821
 20
-365.958
 30
0.00000
  70
    32
  0
VERTEX
  8
0
  5
10917
 10
-100.081
 20
-365.295
 30
0.00000
  70
    32
  0
VERTEX
  8
0
  5
10918
 10
-99.3641
 20
-364.581
 30
0.00000
  70
    32
  0
VERTEX
  8
0
  5
10919
 10
-98.6733
 20
-363.818
 30
0.00000
  70
    32
  0
VERTEX
  8
0
  5
1091A
 10
-98.0097
 20
-363.009
 30
0.00000
  70
    32
  0
VERTEX
  8
0
  5
1091B
 10
-97.3750
 20
-362.154
 30
0.00000
  70
    32
  0
VERTEX
  8
0
  5
1091C
 10
-96.7707
 20
-361.257
 30
0.00000
  70
    32
  0
VERTEX
  8
0
  5
1091D
 10
-96.1983
 20
-360.318
 30
0.00000
  70
    32
  0
VERTEX
  8
0
  5
1091E
 10
-95.6592
 20
-359.341
 30
0.00000
  70
    32
  0
VERTEX
  8
0
  5
1091F
 10
-95.1546
 20
-358.328
 30
0.00000
  70
    32
  0
VERTEX
  8
0
  5
10920
 10
-94.6857
 20
-357.281
 30
0.00000
  70
    32
  0
VERTEX
  8
0
  5
10921
 10
-94.2538
 20
-356.203
 30
0.00000
  70
    32
  0
VERTEX
  8
0
  5
10922
 10
-93.8598
 20
-355.096
 30
0.00000
  70
    32
  0
VERTEX
  8
0
  5
10923
 10
-93.5046
 20
-353.963
 30
0.00000
  70
    32
  0
VERTEX
  8
0
  5
10924
 10
-93.1893
 20
-352.806
 30
0.00000
  70
    32
  0
VERTEX
  8
0
  5
10925
 10
-92.9144
 20
-351.630
 30
0.00000
  70
    32
  0
VERTEX
  8
0
  5
10926
 10
-92.6806
 20
-350.435
 30
0.00000
  70
    32
  0
VERTEX
  8
0
  5
10927
 10
-92.4886
 20
-349.226
 30
0.00000
  70
    32
  0
VERTEX
  8
0
  5
10928
 10
-92.3388
 20
-348.005
 30
0.00000
  70
    32
  0
VERTEX
  8
0
  5
10929
 10
-92.2315
 20
-346.775
 30
0.00000
  70
    32
  0
VERTEX
  8
0
  5
1092A
 10
-92.1671
 20
-345.539
 30
0.00000
  70
    32
  0
VERTEX
  8
0
  5
1092B
 10
-92.1456
 20
-344.300
 30
0.00000
  70
    32
  0
VERTEX
  8
0
  5
1092C
 10
-92.1671
 20
-343.061
 30
0.00000
  70
    32
  0
VERTEX
  8
0
  5
1092D
 10
-92.2315
 20
-341.825
 30
0.00000
  70
    32
  0
VERTEX
  8
0
  5
1092E
 10
-92.3388
 20
-340.595
 30
0.00000
  70
    32
  0
VERTEX
  8
0
  5
1092F
 10
-92.4886
 20
-339.374
 30
0.00000
  70
    32
  0
VERTEX
  8
0
  5
10930
 10
-92.6806
 20
-338.165
 30
0.00000
  70
    32
  0
VERTEX
  8
0
  5
10931
 10
-92.9144
 20
-336.970
 30
0.00000
  70
    32
  0
VERTEX
  8
0
  5
10932
 10
-93.1893
 20
-335.794
 30
0.00000
  70
    32
  0
VERTEX
  8
0
  5
10933
 10
-93.5046
 20
-334.637
 30
0.00000
  70
    32
  0
VERTEX
  8
0
  5
10934
 10
-93.8598
 20
-333.504
 30
0.00000
  70
    32
  0
VERTEX
  8
0
  5
10935
 10
-94.2538
 20
-332.397
 30
0.00000
  70
    32
  0
VERTEX
  8
0
  5
10936
 10
-94.6857
 20
-331.319
 30
0.00000
  70
    32
  0
VERTEX
  8
0
  5
10937
 10
-95.1546
 20
-330.272
 30
0.00000
  70
    32
  0
VERTEX
  8
0
  5
10938
 10
-95.6592
 20
-329.259
 30
0.00000
  70
    32
  0
VERTEX
  8
0
  5
10939
 10
-96.1983
 20
-328.282
 30
0.00000
  70
    32
  0
VERTEX
  8
0
  5
1093A
 10
-96.7707
 20
-327.343
 30
0.00000
  70
    32
  0
VERTEX
  8
0
  5
1093B
 10
-97.3750
 20
-326.446
 30
0.00000
  70
    32
  0
VERTEX
  8
0
  5
1093C
 10
-98.0097
 20
-325.591
 30
0.00000
  70
    32
  0
VERTEX
  8
0
  5
1093D
 10
-98.6733
 20
-324.781
 30
0.00000
  70
    32
  0
VERTEX
  8
0
  5
1093E
 10
-99.3641
 20
-324.019
 30
0.00000
  70
    32
  0
VERTEX
  8
0
  5
1093F
 10
-100.081
 20
-323.305
 30
0.00000
  70
    32
  0
VERTEX
  8
0
  5
10940
 10
-100.821
 20
-322.642
 30
0.00000
  70
    32
  0
VERTEX
  8
0
  5
10941
 10
-101.583
 20
-322.031
 30
0.00000
  70
    32
  0
VERTEX
  8
0
  5
10942
 10
-102.366
 20
-321.474
 30
0.00000
  70
    32
  0
VERTEX
  8
0
  5
10943
 10
-103.167
 20
-320.972
 30
0.00000
  70
    32
  0
VERTEX
  8
0
  5
10944
 10
-103.985
 20
-320.526
 30
0.00000
  70
    32
  0
VERTEX
  8
0
  5
10945
 10
-104.817
 20
-320.137
 30
0.00000
  70
    32
  0
VERTEX
  8
0
  5
10946
 10
-105.662
 20
-319.807
 30
0.00000
  70
    32
  0
VERTEX
  8
0
  5
10947
 10
-106.517
 20
-319.535
 30
0.00000
  70
    32
  0
VERTEX
  8
0
  5
10948
 10
-107.380
 20
-319.323
 30
0.00000
  70
    32
  0
VERTEX
  8
0
  5
10949
 10
-108.250
 20
-319.172
 30
0.00000
  70
    32
  0
VERTEX
  8
0
  5
1094A
 10
-109.124
 20
-319.080
 30
0.00000
  70
    32
  0
VERTEX
  8
0
  5
1094B
 10
-110.000
 20
-319.050
 30
0.00000
  70
    32
  0
SEQEND
  8
0
  5
1094C
  0
POLYLINE
  5
10832
  8
0
 10
-107.9847456736183062
 20
-369.5499689837965889
 30
0.0
 66
     1
 70
     8
  0
VERTEX
  8
0
  5
1094D
 10
-107.985
 20
-369.550
 30
0.00000
  70
    32
  0
VERTEX
  8
0
  5
1094E
 10
-107.547
 20
-369.542
 30
0.00000
  70
    32
  0
VERTEX
  8
0
  5
1094F
 10
-107.109
 20
-369.520
 30
0.00000
  70
    32
  0
VERTEX
  8
0
  5
10950
 10
-106.671
 20
-369.482
 30
0.00000
  70
    32
  0
VERTEX
  8
0
  5
10951
 10
-106.235
 20
-369.428
 30
0.00000
  70
    32
  0
VERTEX
  8
0
  5
10952
 10
-105.799
 20
-369.360
 30
0.00000
  70
    32
  0
VERTEX
  8
0
  5
10953
 10
-105.365
 20
-369.277
 30
0.00000
  70
    32
  0
VERTEX
  8
0
  5
10954
 10
-104.932
 20
-369.178
 30
0.00000
  70
    32
  0
VERTEX
  8
0
  5
10955
 10
-104.502
 20
-369.065
 30
0.00000
  70
    32
  0
VERTEX
  8
0
  5
10956
 10
-104.073
 20
-368.936
 30
0.00000
  70
    32
  0
VERTEX
  8
0
  5
10957
 10
-103.646
 20
-368.793
 30
0.00000
  70
    32
  0
VERTEX
  8
0
  5
10958
 10
-103.223
 20
-368.635
 30
0.00000
  70
    32
  0
VERTEX
  8
0
  5
10959
 10
-102.802
 20
-368.463
 30
0.00000
  70
    32
  0
VERTEX
  8
0
  5
1095A
 10
-102.384
 20
-368.276
 30
0.00000
  70
    32
  0
VERTEX
  8
0
  5
1095B
 10
-101.970
 20
-368.074
 30
0.00000
  70
    32
  0
VERTEX
  8
0
  5
1095C
 10
-101.559
 20
-367.858
 30
0.00000
  70
    32
  0
VERTEX
  8
0
  5
1095D
 10
-101.152
 20
-367.628
 30
0.00000
  70
    32
  0
VERTEX
  8
0
  5
1095E
 10
-100.749
 20
-367.384
 30
0.00000
  70
    32
  0
VERTEX
  8
0
  5
1095F
 10
-100.351
 20
-367.126
 30
0.00000
  70
    32
  0
VERTEX
  8
0
  5
10960
 10
-99.9572
 20
-366.854
 30
0.00000
  70
    32
  0
VERTEX
  8
0
  5
10961
 10
-99.5682
 20
-366.568
 30
0.00000
  70
    32
  0
VERTEX
  8
0
  5
10962
 10
-99.1843
 20
-366.270
 30
0.00000
  70
    32
  0
VERTEX
  8
0
  5
10963
 10
-98.8057
 20
-365.958
 30
0.00000
  70
    32
  0
VERTEX
  8
0
  5
10964
 10
-98.4327
 20
-365.633
 30
0.00000
  70
    32
  0
VERTEX
  8
0
  5
10965
 10
-98.0653
 20
-365.295
 30
0.00000
  70
    32
  0
VERTEX
  8
0
  5
10966
 10
-97.7040
 20
-364.944
 30
0.00000
  70
    32
  0
VERTEX
  8
0
  5
10967
 10
-97.3489
 20
-364.581
 30
0.00000
  70
    32
  0
VERTEX
  8
0
  5
10968
 10
-97.0001
 20
-364.206
 30
0.00000
  70
    32
  0
VERTEX
  8
0
  5
10969
 10
-96.6580
 20
-363.818
 30
0.00000
  70
    32
  0
VERTEX
  8
0
  5
1096A
 10
-96.3227
 20
-363.419
 30
0.00000
  70
    32
  0
VERTEX
  8
0
  5
1096B
 10
-95.9944
 20
-363.009
 30
0.00000
  70
    32
  0
VERTEX
  8
0
  5
1096C
 10
-95.6734
 20
-362.587
 30
0.00000
  70
    32
  0
VERTEX
  8
0
  5
1096D
 10
-95.3597
 20
-362.154
 30
0.00000
  70
    32
  0
VERTEX
  8
0
  5
1096E
 10
-95.0537
 20
-361.711
 30
0.00000
  70
    32
  0
VERTEX
  8
0
  5
1096F
 10
-94.7555
 20
-361.257
 30
0.00000
  70
    32
  0
VERTEX
  8
0
  5
10970
 10
-94.4652
 20
-360.793
 30
0.00000
  70
    32
  0
VERTEX
  8
0
  5
10971
 10
-94.1831
 20
-360.318
 30
0.00000
  70
    32
  0
VERTEX
  8
0
  5
10972
 10
-93.9093
 20
-359.835
 30
0.00000
  70
    32
  0
VERTEX
  8
0
  5
10973
 10
-93.6439
 20
-359.341
 30
0.00000
  70
    32
  0
VERTEX
  8
0
  5
10974
 10
-93.3872
 20
-358.839
 30
0.00000
  70
    32
  0
VERTEX
  8
0
  5
10975
 10
-93.1393
 20
-358.328
 30
0.00000
  70
    32
  0
VERTEX
  8
0
  5
10976
 10
-92.9004
 20
-357.809
 30
0.00000
  70
    32
  0
VERTEX
  8
0
  5
10977
 10
-92.6705
 20
-357.281
 30
0.00000
  70
    32
  0
VERTEX
  8
0
  5
10978
 10
-92.4498
 20
-356.746
 30
0.00000
  70
    32
  0
VERTEX
  8
0
  5
10979
 10
-92.2385
 20
-356.203
 30
0.00000
  70
    32
  0
VERTEX
  8
0
  5
1097A
 10
-92.0367
 20
-355.653
 30
0.00000
  70
    32
  0
VERTEX
  8
0
  5
1097B
 10
-91.8445
 20
-355.096
 30
0.00000
  70
    32
  0
VERTEX
  8
0
  5
1097C
 10
-91.6620
 20
-354.532
 30
0.00000
  70
    32
  0
VERTEX
  8
0
  5
1097D
 10
-91.4894
 20
-353.963
 30
0.00000
  70
    32
  0
VERTEX
  8
0
  5
1097E
 10
-91.3267
 20
-353.387
 30
0.00000
  70
    32
  0
VERTEX
  8
0
  5
1097F
 10
-91.1740
 20
-352.806
 30
0.00000
  70
    32
  0
VERTEX
  8
0
  5
10980
 10
-91.0314
 20
-352.220
 30
0.00000
  70
    32
  0
VERTEX
  8
0
  5
10981
 10
-90.8991
 20
-351.630
 30
0.00000
  70
    32
  0
VERTEX
  8
0
  5
10982
 10
-90.7771
 20
-351.034
 30
0.00000
  70
    32
  0
VERTEX
  8
0
  5
10983
 10
-90.6654
 20
-350.435
 30
0.00000
  70
    32
  0
VERTEX
  8
0
  5
10984
 10
-90.5641
 20
-349.832
 30
0.00000
  70
    32
  0
VERTEX
  8
0
  5
10985
 10
-90.4734
 20
-349.226
 30
0.00000
  70
    32
  0
VERTEX
  8
0
  5
10986
 10
-90.3932
 20
-348.617
 30
0.00000
  70
    32
  0
VERTEX
  8
0
  5
10987
 10
-90.3235
 20
-348.005
 30
0.00000
  70
    32
  0
VERTEX
  8
0
  5
10988
 10
-90.2646
 20
-347.391
 30
0.00000
  70
    32
  0
VERTEX
  8
0
  5
10989
 10
-90.2163
 20
-346.775
 30
0.00000
  70
    32
  0
VERTEX
  8
0
  5
1098A
 10
-90.1787
 20
-346.157
 30
0.00000
  70
    32
  0
VERTEX
  8
0
  5
1098B
 10
-90.1518
 20
-345.539
 30
0.00000
  70
    32
  0
VERTEX
  8
0
  5
1098C
 10
-90.1357
 20
-344.920
 30
0.00000
  70
    32
  0
VERTEX
  8
0
  5
1098D
 10
-90.1303
 20
-344.300
 30
0.00000
  70
    32
  0
VERTEX
  8
0
  5
1098E
 10
-90.1357
 20
-343.680
 30
0.00000
  70
    32
  0
VERTEX
  8
0
  5
1098F
 10
-90.1518
 20
-343.061
 30
0.00000
  70
    32
  0
VERTEX
  8
0
  5
10990
 10
-90.1787
 20
-342.442
 30
0.00000
  70
    32
  0
VERTEX
  8
0
  5
10991
 10
-90.2163
 20
-341.825
 30
0.00000
  70
    32
  0
VERTEX
  8
0
  5
10992
 10
-90.2646
 20
-341.209
 30
0.00000
  70
    32
  0
VERTEX
  8
0
  5
10993
 10
-90.3235
 20
-340.595
 30
0.00000
  70
    32
  0
VERTEX
  8
0
  5
10994
 10
-90.3932
 20
-339.983
 30
0.00000
  70
    32
  0
VERTEX
  8
0
  5
10995
 10
-90.4734
 20
-339.374
 30
0.00000
  70
    32
  0
VERTEX
  8
0
  5
10996
 10
-90.5641
 20
-338.768
 30
0.00000
  70
    32
  0
VERTEX
  8
0
  5
10997
 10
-90.6654
 20
-338.165
 30
0.00000
  70
    32
  0
VERTEX
  8
0
  5
10998
 10
-90.7771
 20
-337.565
 30
0.00000
  70
    32
  0
VERTEX
  8
0
  5
10999
 10
-90.8991
 20
-336.970
 30
0.00000
  70
    32
  0
VERTEX
  8
0
  5
1099A
 10
-91.0314
 20
-336.380
 30
0.00000
  70
    32
  0
VERTEX
  8
0
  5
1099B
 10
-91.1740
 20
-335.794
 30
0.00000
  70
    32
  0
VERTEX
  8
0
  5
1099C
 10
-91.3267
 20
-335.213
 30
0.00000
  70
    32
  0
VERTEX
  8
0
  5
1099D
 10
-91.4894
 20
-334.637
 30
0.00000
  70
    32
  0
VERTEX
  8
0
  5
1099E
 10
-91.6620
 20
-334.068
 30
0.00000
  70
    32
  0
VERTEX
  8
0
  5
1099F
 10
-91.8445
 20
-333.504
 30
0.00000
  70
    32
  0
VERTEX
  8
0
  5
109A0
 10
-92.0367
 20
-332.947
 30
0.00000
  70
    32
  0
VERTEX
  8
0
  5
109A1
 10
-92.2385
 20
-332.397
 30
0.00000
  70
    32
  0
VERTEX
  8
0
  5
109A2
 10
-92.4498
 20
-331.854
 30
0.00000
  70
    32
  0
VERTEX
  8
0
  5
109A3
 10
-92.6705
 20
-331.319
 30
0.00000
  70
    32
  0
VERTEX
  8
0
  5
109A4
 10
-92.9004
 20
-330.791
 30
0.00000
  70
    32
  0
VERTEX
  8
0
  5
109A5
 10
-93.1393
 20
-330.272
 30
0.00000
  70
    32
  0
VERTEX
  8
0
  5
109A6
 10
-93.3872
 20
-329.761
 30
0.00000
  70
    32
  0
VERTEX
  8
0
  5
109A7
 10
-93.6439
 20
-329.259
 30
0.00000
  70
    32
  0
VERTEX
  8
0
  5
109A8
 10
-93.9093
 20
-328.765
 30
0.00000
  70
    32
  0
VERTEX
  8
0
  5
109A9
 10
-94.1831
 20
-328.282
 30
0.00000
  70
    32
  0
VERTEX
  8
0
  5
109AA
 10
-94.4652
 20
-327.807
 30
0.00000
  70
    32
  0
VERTEX
  8
0
  5
109AB
 10
-94.7555
 20
-327.343
 30
0.00000
  70
    32
  0
VERTEX
  8
0
  5
109AC
 10
-95.0537
 20
-326.889
 30
0.00000
  70
    32
  0
VERTEX
  8
0
  5
109AD
 10
-95.3597
 20
-326.446
 30
0.00000
  70
    32
  0
VERTEX
  8
0
  5
109AE
 10
-95.6734
 20
-326.013
 30
0.00000
  70
    32
  0
VERTEX
  8
0
  5
109AF
 10
-95.9944
 20
-325.591
 30
0.00000
  70
    32
  0
VERTEX
  8
0
  5
109B0
 10
-96.3227
 20
-325.180
 30
0.00000
  70
    32
  0
VERTEX
  8
0
  5
109B1
 10
-96.6580
 20
-324.781
 30
0.00000
  70
    32
  0
VERTEX
  8
0
  5
109B2
 10
-97.0001
 20
-324.394
 30
0.00000
  70
    32
  0
VERTEX
  8
0
  5
109B3
 10
-97.3489
 20
-324.019
 30
0.00000
  70
    32
  0
VERTEX
  8
0
  5
109B4
 10
-97.7040
 20
-323.656
 30
0.00000
  70
    32
  0
VERTEX
  8
0
  5
109B5
 10
-98.0653
 20
-323.305
 30
0.00000
  70
    32
  0
VERTEX
  8
0
  5
109B6
 10
-98.4327
 20
-322.967
 30
0.00000
  70
    32
  0
VERTEX
  8
0
  5
109B7
 10
-98.8057
 20
-322.642
 30
0.00000
  70
    32
  0
VERTEX
  8
0
  5
109B8
 10
-99.1843
 20
-322.330
 30
0.00000
  70
    32
  0
VERTEX
  8
0
  5
109B9
 10
-99.5682
 20
-322.031
 30
0.00000
  70
    32
  0
VERTEX
  8
0
  5
109BA
 10
-99.9572
 20
-321.746
 30
0.00000
  70
    32
  0
VERTEX
  8
0
  5
109BB
 10
-100.351
 20
-321.474
 30
0.00000
  70
    32
  0
VERTEX
  8
0
  5
109BC
 10
-100.749
 20
-321.216
 30
0.00000
  70
    32
  0
VERTEX
  8
0
  5
109BD
 10
-101.152
 20
-320.972
 30
0.00000
  70
    32
  0
VERTEX
  8
0
  5
109BE
 10
-101.559
 20
-320.742
 30
0.00000
  70
    32
  0
VERTEX
  8
0
  5
109BF
 10
-101.970
 20
-320.526
 30
0.00000
  70
    32
  0
VERTEX
  8
0
  5
109C0
 10
-102.384
 20
-320.324
 30
0.00000
  70
    32
  0
VERTEX
  8
0
  5
109C1
 10
-102.802
 20
-320.137
 30
0.00000
  70
    32
  0
VERTEX
  8
0
  5
109C2
 10
-103.223
 20
-319.965
 30
0.00000
  70
    32
  0
VERTEX
  8
0
  5
109C3
 10
-103.646
 20
-319.807
 30
0.00000
  70
    32
  0
VERTEX
  8
0
  5
109C4
 10
-104.073
 20
-319.663
 30
0.00000
  70
    32
  0
VERTEX
  8
0
  5
109C5
 10
-104.502
 20
-319.535
 30
0.00000
  70
    32
  0
VERTEX
  8
0
  5
109C6
 10
-104.932
 20
-319.422
 30
0.00000
  70
    32
  0
VERTEX
  8
0
  5
109C7
 10
-105.365
 20
-319.323
 30
0.00000
  70
    32
  0
VERTEX
  8
0
  5
109C8
 10
-105.799
 20
-319.240
 30
0.00000
  70
    32
  0
VERTEX
  8
0
  5
109C9
 10
-106.235
 20
-319.172
 30
0.00000
  70
    32
  0
VERTEX
  8
0
  5
109CA
 10
-106.671
 20
-319.118
 30
0.00000
  70
    32
  0
VERTEX
  8
0
  5
109CB
 10
-107.109
 20
-319.080
 30
0.00000
  70
    32
  0
VERTEX
  8
0
  5
109CC
 10
-107.547
 20
-319.058
 30
0.00000
  70
    32
  0
VERTEX
  8
0
  5
109CD
 10
-107.985
 20
-319.050
 30
0.00000
  70
    32
  0
SEQEND
  8
0
  5
109CE
  0
LINE
  5
10833
  8
0
 10
-107.9847456736183062
 20
-319.0499689837965889
 30
0.0
 11
-110.0
 21
-319.0499689837965889
 31
0.0
  0
LINE
  5
10834
  8
0
 10
-107.9847456736183062
 20
-369.5499689837965889
 30
0.0
 11
-110.0
 21
-369.5499689837965889
 31
0.0
  0
LINE
  5
10835
  8
0
  6
CENTER
 10
-138.9994235988222044
 20
-344.2999689837965889
 30
0.0
 11
138.9994235988220908
 21
-344.2999689837965889
 31
0.0
  0
POLYLINE
  5
10836
  8
0
 10
-110.0
 20
-332.7999689837965889
 30
0.0
 66
     1
 70
     8
  0
VERTEX
  8
0
  5
109CF
 10
-110.000
 20
-332.800
 30
0.00000
  70
    32
  0
VERTEX
  8
0
  5
109D0
 10
-110.399
 20
-332.814
 30
0.00000
  70
    32
  0
VERTEX
  8
0
  5
109D1
 10
-110.797
 20
-332.855
 30
0.00000
  70
    32
  0
VERTEX
  8
0
  5
109D2
 10
-111.193
 20
-332.924
 30
0.00000
  70
    32
  0
VERTEX
  8
0
  5
109D3
 10
-111.586
 20
-333.021
 30
0.00000
  70
    32
  0
VERTEX
  8
0
  5
109D4
 10
-111.976
 20
-333.145
 30
0.00000
  70
    32
  0
VERTEX
  8
0
  5
109D5
 10
-112.361
 20
-333.295
 30
0.00000
  70
    32
  0
VERTEX
  8
0
  5
109D6
 10
-112.739
 20
-333.472
 30
0.00000
  70
    32
  0
VERTEX
  8
0
  5
109D7
 10
-113.112
 20
-333.675
 30
0.00000
  70
    32
  0
VERTEX
  8
0
  5
109D8
 10
-113.477
 20
-333.904
 30
0.00000
  70
    32
  0
VERTEX
  8
0
  5
109D9
 10
-113.833
 20
-334.158
 30
0.00000
  70
    32
  0
VERTEX
  8
0
  5
109DA
 10
-114.181
 20
-334.436
 30
0.00000
  70
    32
  0
VERTEX
  8
0
  5
109DB
 10
-114.518
 20
-334.738
 30
0.00000
  70
    32
  0
VERTEX
  8
0
  5
109DC
 10
-114.844
 20
-335.063
 30
0.00000
  70
    32
  0
VERTEX
  8
0
  5
109DD
 10
-115.159
 20
-335.410
 30
0.00000
  70
    32
  0
VERTEX
  8
0
  5
109DE
 10
-115.461
 20
-335.779
 30
0.00000
  70
    32
  0
VERTEX
  8
0
  5
109DF
 10
-115.750
 20
-336.168
 30
0.00000
  70
    32
  0
VERTEX
  8
0
  5
109E0
 10
-116.025
 20
-336.577
 30
0.00000
  70
    32
  0
VERTEX
  8
0
  5
109E1
 10
-116.286
 20
-337.004
 30
0.00000
  70
    32
  0
VERTEX
  8
0
  5
109E2
 10
-116.531
 20
-337.449
 30
0.00000
  70
    32
  0
VERTEX
  8
0
  5
109E3
 10
-116.761
 20
-337.911
 30
0.00000
  70
    32
  0
VERTEX
  8
0
  5
109E4
 10
-116.975
 20
-338.388
 30
0.00000
  70
    32
  0
VERTEX
  8
0
  5
109E5
 10
-117.172
 20
-338.879
 30
0.00000
  70
    32
  0
VERTEX
  8
0
  5
109E6
 10
-117.351
 20
-339.383
 30
0.00000
  70
    32
  0
VERTEX
  8
0
  5
109E7
 10
-117.513
 20
-339.899
 30
0.00000
  70
    32
  0
VERTEX
  8
0
  5
109E8
 10
-117.656
 20
-340.426
 30
0.00000
  70
    32
  0
VERTEX
  8
0
  5
109E9
 10
-117.782
 20
-340.962
 30
0.00000
  70
    32
  0
VERTEX
  8
0
  5
109EA
 10
-117.888
 20
-341.506
 30
0.00000
  70
    32
  0
VERTEX
  8
0
  5
109EB
 10
-117.975
 20
-342.056
 30
0.00000
  70
    32
  0
VERTEX
  8
0
  5
109EC
 10
-118.044
 20
-342.613
 30
0.00000
  70
    32
  0
VERTEX
  8
0
  5
109ED
 10
-118.093
 20
-343.173
 30
0.00000
  70
    32
  0
VERTEX
  8
0
  5
109EE
 10
-118.122
 20
-343.736
 30
0.00000
  70
    32
  0
VERTEX
  8
0
  5
109EF
 10
-118.132
 20
-344.300
 30
0.00000
  70
    32
  0
VERTEX
  8
0
  5
109F0
 10
-118.122
 20
-344.864
 30
0.00000
  70
    32
  0
VERTEX
  8
0
  5
109F1
 10
-118.093
 20
-345.427
 30
0.00000
  70
    32
  0
VERTEX
  8
0
  5
109F2
 10
-118.044
 20
-345.987
 30
0.00000
  70
    32
  0
VERTEX
  8
0
  5
109F3
 10
-117.975
 20
-346.544
 30
0.00000
  70
    32
  0
VERTEX
  8
0
  5
109F4
 10
-117.888
 20
-347.094
 30
0.00000
  70
    32
  0
VERTEX
  8
0
  5
109F5
 10
-117.782
 20
-347.638
 30
0.00000
  70
    32
  0
VERTEX
  8
0
  5
109F6
 10
-117.656
 20
-348.174
 30
0.00000
  70
    32
  0
VERTEX
  8
0
  5
109F7
 10
-117.513
 20
-348.701
 30
0.00000
  70
    32
  0
VERTEX
  8
0
  5
109F8
 10
-117.351
 20
-349.217
 30
0.00000
  70
    32
  0
VERTEX
  8
0
  5
109F9
 10
-117.172
 20
-349.721
 30
0.00000
  70
    32
  0
VERTEX
  8
0
  5
109FA
 10
-116.975
 20
-350.212
 30
0.00000
  70
    32
  0
VERTEX
  8
0
  5
109FB
 10
-116.761
 20
-350.689
 30
0.00000
  70
    32
  0
VERTEX
  8
0
  5
109FC
 10
-116.531
 20
-351.151
 30
0.00000
  70
    32
  0
VERTEX
  8
0
  5
109FD
 10
-116.286
 20
-351.595
 30
0.00000
  70
    32
  0
VERTEX
  8
0
  5
109FE
 10
-116.025
 20
-352.023
 30
0.00000
  70
    32
  0
VERTEX
  8
0
  5
109FF
 10
-115.750
 20
-352.432
 30
0.00000
  70
    32
  0
VERTEX
  8
0
  5
10A00
 10
-115.461
 20
-352.821
 30
0.00000
  70
    32
  0
VERTEX
  8
0
  5
10A01
 10
-115.159
 20
-353.190
 30
0.00000
  70
    32
  0
VERTEX
  8
0
  5
10A02
 10
-114.844
 20
-353.537
 30
0.00000
  70
    32
  0
VERTEX
  8
0
  5
10A03
 10
-114.518
 20
-353.862
 30
0.00000
  70
    32
  0
VERTEX
  8
0
  5
10A04
 10
-114.181
 20
-354.164
 30
0.00000
  70
    32
  0
VERTEX
  8
0
  5
10A05
 10
-113.833
 20
-354.442
 30
0.00000
  70
    32
  0
VERTEX
  8
0
  5
10A06
 10
-113.477
 20
-354.696
 30
0.00000
  70
    32
  0
VERTEX
  8
0
  5
10A07
 10
-113.112
 20
-354.925
 30
0.00000
  70
    32
  0
VERTEX
  8
0
  5
10A08
 10
-112.739
 20
-355.128
 30
0.00000
  70
    32
  0
VERTEX
  8
0
  5
10A09
 10
-112.361
 20
-355.305
 30
0.00000
  70
    32
  0
VERTEX
  8
0
  5
10A0A
 10
-111.976
 20
-355.455
 30
0.00000
  70
    32
  0
VERTEX
  8
0
  5
10A0B
 10
-111.586
 20
-355.579
 30
0.00000
  70
    32
  0
VERTEX
  8
0
  5
10A0C
 10
-111.193
 20
-355.675
 30
0.00000
  70
    32
  0
VERTEX
  8
0
  5
10A0D
 10
-110.797
 20
-355.745
 30
0.00000
  70
    32
  0
VERTEX
  8
0
  5
10A0E
 10
-110.399
 20
-355.786
 30
0.00000
  70
    32
  0
VERTEX
  8
0
  5
10A0F
 10
-110.000
 20
-355.800
 30
0.00000
  70
    32
  0
VERTEX
  8
0
  5
10A10
 10
-109.601
 20
-355.786
 30
0.00000
  70
    32
  0
VERTEX
  8
0
  5
10A11
 10
-109.203
 20
-355.745
 30
0.00000
  70
    32
  0
VERTEX
  8
0
  5
10A12
 10
-108.807
 20
-355.675
 30
0.00000
  70
    32
  0
VERTEX
  8
0
  5
10A13
 10
-108.414
 20
-355.579
 30
0.00000
  70
    32
  0
VERTEX
  8
0
  5
10A14
 10
-108.024
 20
-355.455
 30
0.00000
  70
    32
  0
VERTEX
  8
0
  5
10A15
 10
-107.639
 20
-355.305
 30
0.00000
  70
    32
  0
VERTEX
  8
0
  5
10A16
 10
-107.261
 20
-355.128
 30
0.00000
  70
    32
  0
VERTEX
  8
0
  5
10A17
 10
-106.888
 20
-354.925
 30
0.00000
  70
    32
  0
VERTEX
  8
0
  5
10A18
 10
-106.523
 20
-354.696
 30
0.00000
  70
    32
  0
VERTEX
  8
0
  5
10A19
 10
-106.167
 20
-354.442
 30
0.00000
  70
    32
  0
VERTEX
  8
0
  5
10A1A
 10
-105.819
 20
-354.164
 30
0.00000
  70
    32
  0
VERTEX
  8
0
  5
10A1B
 10
-105.482
 20
-353.862
 30
0.00000
  70
    32
  0
VERTEX
  8
0
  5
10A1C
 10
-105.156
 20
-353.537
 30
0.00000
  70
    32
  0
VERTEX
  8
0
  5
10A1D
 10
-104.841
 20
-353.190
 30
0.00000
  70
    32
  0
VERTEX
  8
0
  5
10A1E
 10
-104.539
 20
-352.821
 30
0.00000
  70
    32
  0
VERTEX
  8
0
  5
10A1F
 10
-104.250
 20
-352.432
 30
0.00000
  70
    32
  0
VERTEX
  8
0
  5
10A20
 10
-103.975
 20
-352.023
 30
0.00000
  70
    32
  0
VERTEX
  8
0
  5
10A21
 10
-103.714
 20
-351.595
 30
0.00000
  70
    32
  0
VERTEX
  8
0
  5
10A22
 10
-103.469
 20
-351.151
 30
0.00000
  70
    32
  0
VERTEX
  8
0
  5
10A23
 10
-103.239
 20
-350.689
 30
0.00000
  70
    32
  0
VERTEX
  8
0
  5
10A24
 10
-103.025
 20
-350.212
 30
0.00000
  70
    32
  0
VERTEX
  8
0
  5
10A25
 10
-102.828
 20
-349.721
 30
0.00000
  70
    32
  0
VERTEX
  8
0
  5
10A26
 10
-102.649
 20
-349.217
 30
0.00000
  70
    32
  0
VERTEX
  8
0
  5
10A27
 10
-102.487
 20
-348.701
 30
0.00000
  70
    32
  0
VERTEX
  8
0
  5
10A28
 10
-102.344
 20
-348.174
 30
0.00000
  70
    32
  0
VERTEX
  8
0
  5
10A29
 10
-102.218
 20
-347.638
 30
0.00000
  70
    32
  0
VERTEX
  8
0
  5
10A2A
 10
-102.112
 20
-347.094
 30
0.00000
  70
    32
  0
VERTEX
  8
0
  5
10A2B
 10
-102.025
 20
-346.544
 30
0.00000
  70
    32
  0
VERTEX
  8
0
  5
10A2C
 10
-101.956
 20
-345.987
 30
0.00000
  70
    32
  0
VERTEX
  8
0
  5
10A2D
 10
-101.907
 20
-345.427
 30
0.00000
  70
    32
  0
VERTEX
  8
0
  5
10A2E
 10
-101.878
 20
-344.864
 30
0.00000
  70
    32
  0
VERTEX
  8
0
  5
10A2F
 10
-101.868
 20
-344.300
 30
0.00000
  70
    32
  0
VERTEX
  8
0
  5
10A30
 10
-101.878
 20
-343.736
 30
0.00000
  70
    32
  0
VERTEX
  8
0
  5
10A31
 10
-101.907
 20
-343.173
 30
0.00000
  70
    32
  0
VERTEX
  8
0
  5
10A32
 10
-101.956
 20
-342.613
 30
0.00000
  70
    32
  0
VERTEX
  8
0
  5
10A33
 10
-102.025
 20
-342.056
 30
0.00000
  70
    32
  0
VERTEX
  8
0
  5
10A34
 10
-102.112
 20
-341.506
 30
0.00000
  70
    32
  0
VERTEX
  8
0
  5
10A35
 10
-102.218
 20
-340.962
 30
0.00000
  70
    32
  0
VERTEX
  8
0
  5
10A36
 10
-102.344
 20
-340.426
 30
0.00000
  70
    32
  0
VERTEX
  8
0
  5
10A37
 10
-102.487
 20
-339.899
 30
0.00000
  70
    32
  0
VERTEX
  8
0
  5
10A38
 10
-102.649
 20
-339.383
 30
0.00000
  70
    32
  0
VERTEX
  8
0
  5
10A39
 10
-102.828
 20
-338.879
 30
0.00000
  70
    32
  0
VERTEX
  8
0
  5
10A3A
 10
-103.025
 20
-338.388
 30
0.00000
  70
    32
  0
VERTEX
  8
0
  5
10A3B
 10
-103.239
 20
-337.911
 30
0.00000
  70
    32
  0
VERTEX
  8
0
  5
10A3C
 10
-103.469
 20
-337.449
 30
0.00000
  70
    32
  0
VERTEX
  8
0
  5
10A3D
 10
-103.714
 20
-337.004
 30
0.00000
  70
    32
  0
VERTEX
  8
0
  5
10A3E
 10
-103.975
 20
-336.577
 30
0.00000
  70
    32
  0
VERTEX
  8
0
  5
10A3F
 10
-104.250
 20
-336.168
 30
0.00000
  70
    32
  0
VERTEX
  8
0
  5
10A40
 10
-104.539
 20
-335.779
 30
0.00000
  70
    32
  0
VERTEX
  8
0
  5
10A41
 10
-104.841
 20
-335.410
 30
0.00000
  70
    32
  0
VERTEX
  8
0
  5
10A42
 10
-105.156
 20
-335.063
 30
0.00000
  70
    32
  0
VERTEX
  8
0
  5
10A43
 10
-105.482
 20
-334.738
 30
0.00000
  70
    32
  0
VERTEX
  8
0
  5
10A44
 10
-105.819
 20
-334.436
 30
0.00000
  70
    32
  0
VERTEX
  8
0
  5
10A45
 10
-106.167
 20
-334.158
 30
0.00000
  70
    32
  0
VERTEX
  8
0
  5
10A46
 10
-106.523
 20
-333.904
 30
0.00000
  70
    32
  0
VERTEX
  8
0
  5
10A47
 10
-106.888
 20
-333.675
 30
0.00000
  70
    32
  0
VERTEX
  8
0
  5
10A48
 10
-107.261
 20
-333.472
 30
0.00000
  70
    32
  0
VERTEX
  8
0
  5
10A49
 10
-107.639
 20
-333.295
 30
0.00000
  70
    32
  0
VERTEX
  8
0
  5
10A4A
 10
-108.024
 20
-333.145
 30
0.00000
  70
    32
  0
VERTEX
  8
0
  5
10A4B
 10
-108.414
 20
-333.021
 30
0.00000
  70
    32
  0
VERTEX
  8
0
  5
10A4C
 10
-108.807
 20
-332.924
 30
0.00000
  70
    32
  0
VERTEX
  8
0
  5
10A4D
 10
-109.203
 20
-332.855
 30
0.00000
  70
    32
  0
VERTEX
  8
0
  5
10A4E
 10
-109.601
 20
-332.814
 30
0.00000
  70
    32
  0
VERTEX
  8
0
  5
10A4F
 10
-110.000
 20
-332.800
 30
0.00000
  70
    32
  0
SEQEND
  8
0
  5
10A50
  0
POLYLINE
  5
10837
  8
0
 10
109.9694384985727993
 20
-319.0499689837965889
 30
0.0
 66
     1
 70
     8
  0
VERTEX
  8
0
  5
10A51
 10
109.969
 20
-319.050
 30
0.00000
  70
    32
  0
VERTEX
  8
0
  5
10A52
 10
110.846
 20
-319.080
 30
0.00000
  70
    32
  0
VERTEX
  8
0
  5
10A53
 10
111.719
 20
-319.172
 30
0.00000
  70
    32
  0
VERTEX
  8
0
  5
10A54
 10
112.589
 20
-319.323
 30
0.00000
  70
    32
  0
VERTEX
  8
0
  5
10A55
 10
113.453
 20
-319.535
 30
0.00000
  70
    32
  0
VERTEX
  8
0
  5
10A56
 10
114.308
 20
-319.807
 30
0.00000
  70
    32
  0
VERTEX
  8
0
  5
10A57
 10
115.152
 20
-320.137
 30
0.00000
  70
    32
  0
VERTEX
  8
0
  5
10A58
 10
115.984
 20
-320.526
 30
0.00000
  70
    32
  0
VERTEX
  8
0
  5
10A59
 10
116.802
 20
-320.972
 30
0.00000
  70
    32
  0
VERTEX
  8
0
  5
10A5A
 10
117.603
 20
-321.474
 30
0.00000
  70
    32
  0
VERTEX
  8
0
  5
10A5B
 10
118.386
 20
-322.031
 30
0.00000
  70
    32
  0
VERTEX
  8
0
  5
10A5C
 10
119.148
 20
-322.642
 30
0.00000
  70
    32
  0
VERTEX
  8
0
  5
10A5D
 10
119.889
 20
-323.305
 30
0.00000
  70
    32
  0
VERTEX
  8
0
  5
10A5E
 10
120.605
 20
-324.019
 30
0.00000
  70
    32
  0
VERTEX
  8
0
  5
10A5F
 10
121.296
 20
-324.781
 30
0.00000
  70
    32
  0
VERTEX
  8
0
  5
10A60
 10
121.960
 20
-325.591
 30
0.00000
  70
    32
  0
VERTEX
  8
0
  5
10A61
 10
122.594
 20
-326.446
 30
0.00000
  70
    32
  0
VERTEX
  8
0
  5
10A62
 10
123.199
 20
-327.343
 30
0.00000
  70
    32
  0
VERTEX
  8
0
  5
10A63
 10
123.771
 20
-328.282
 30
0.00000
  70
    32
  0
VERTEX
  8
0
  5
10A64
 10
124.310
 20
-329.259
 30
0.00000
  70
    32
  0
VERTEX
  8
0
  5
10A65
 10
124.815
 20
-330.272
 30
0.00000
  70
    32
  0
VERTEX
  8
0
  5
10A66
 10
125.284
 20
-331.319
 30
0.00000
  70
    32
  0
VERTEX
  8
0
  5
10A67
 10
125.716
 20
-332.397
 30
0.00000
  70
    32
  0
VERTEX
  8
0
  5
10A68
 10
126.110
 20
-333.504
 30
0.00000
  70
    32
  0
VERTEX
  8
0
  5
10A69
 10
126.465
 20
-334.637
 30
0.00000
  70
    32
  0
VERTEX
  8
0
  5
10A6A
 10
126.780
 20
-335.794
 30
0.00000
  70
    32
  0
VERTEX
  8
0
  5
10A6B
 10
127.055
 20
-336.970
 30
0.00000
  70
    32
  0
VERTEX
  8
0
  5
10A6C
 10
127.289
 20
-338.165
 30
0.00000
  70
    32
  0
VERTEX
  8
0
  5
10A6D
 10
127.481
 20
-339.374
 30
0.00000
  70
    32
  0
VERTEX
  8
0
  5
10A6E
 10
127.631
 20
-340.595
 30
0.00000
  70
    32
  0
VERTEX
  8
0
  5
10A6F
 10
127.738
 20
-341.825
 30
0.00000
  70
    32
  0
VERTEX
  8
0
  5
10A70
 10
127.802
 20
-343.061
 30
0.00000
  70
    32
  0
VERTEX
  8
0
  5
10A71
 10
127.824
 20
-344.300
 30
0.00000
  70
    32
  0
VERTEX
  8
0
  5
10A72
 10
127.802
 20
-345.539
 30
0.00000
  70
    32
  0
VERTEX
  8
0
  5
10A73
 10
127.738
 20
-346.775
 30
0.00000
  70
    32
  0
VERTEX
  8
0
  5
10A74
 10
127.631
 20
-348.005
 30
0.00000
  70
    32
  0
VERTEX
  8
0
  5
10A75
 10
127.481
 20
-349.226
 30
0.00000
  70
    32
  0
VERTEX
  8
0
  5
10A76
 10
127.289
 20
-350.435
 30
0.00000
  70
    32
  0
VERTEX
  8
0
  5
10A77
 10
127.055
 20
-351.630
 30
0.00000
  70
    32
  0
VERTEX
  8
0
  5
10A78
 10
126.780
 20
-352.806
 30
0.00000
  70
    32
  0
VERTEX
  8
0
  5
10A79
 10
126.465
 20
-353.963
 30
0.00000
  70
    32
  0
VERTEX
  8
0
  5
10A7A
 10
126.110
 20
-355.096
 30
0.00000
  70
    32
  0
VERTEX
  8
0
  5
10A7B
 10
125.716
 20
-356.203
 30
0.00000
  70
    32
  0
VERTEX
  8
0
  5
10A7C
 10
125.284
 20
-357.281
 30
0.00000
  70
    32
  0
VERTEX
  8
0
  5
10A7D
 10
124.815
 20
-358.328
 30
0.00000
  70
    32
  0
VERTEX
  8
0
  5
10A7E
 10
124.310
 20
-359.341
 30
0.00000
  70
    32
  0
VERTEX
  8
0
  5
10A7F
 10
123.771
 20
-360.318
 30
0.00000
  70
    32
  0
VERTEX
  8
0
  5
10A80
 10
123.199
 20
-361.257
 30
0.00000
  70
    32
  0
VERTEX
  8
0
  5
10A81
 10
122.594
 20
-362.154
 30
0.00000
  70
    32
  0
VERTEX
  8
0
  5
10A82
 10
121.960
 20
-363.009
 30
0.00000
  70
    32
  0
VERTEX
  8
0
  5
10A83
 10
121.296
 20
-363.818
 30
0.00000
  70
    32
  0
VERTEX
  8
0
  5
10A84
 10
120.605
 20
-364.581
 30
0.00000
  70
    32
  0
VERTEX
  8
0
  5
10A85
 10
119.889
 20
-365.295
 30
0.00000
  70
    32
  0
VERTEX
  8
0
  5
10A86
 10
119.148
 20
-365.958
 30
0.00000
  70
    32
  0
VERTEX
  8
0
  5
10A87
 10
118.386
 20
-366.568
 30
0.00000
  70
    32
  0
VERTEX
  8
0
  5
10A88
 10
117.603
 20
-367.126
 30
0.00000
  70
    32
  0
VERTEX
  8
0
  5
10A89
 10
116.802
 20
-367.628
 30
0.00000
  70
    32
  0
VERTEX
  8
0
  5
10A8A
 10
115.984
 20
-368.074
 30
0.00000
  70
    32
  0
VERTEX
  8
0
  5
10A8B
 10
115.152
 20
-368.463
 30
0.00000
  70
    32
  0
VERTEX
  8
0
  5
10A8C
 10
114.308
 20
-368.793
 30
0.00000
  70
    32
  0
VERTEX
  8
0
  5
10A8D
 10
113.453
 20
-369.065
 30
0.00000
  70
    32
  0
VERTEX
  8
0
  5
10A8E
 10
112.589
 20
-369.277
 30
0.00000
  70
    32
  0
VERTEX
  8
0
  5
10A8F
 10
111.719
 20
-369.428
 30
0.00000
  70
    32
  0
VERTEX
  8
0
  5
10A90
 10
110.846
 20
-369.520
 30
0.00000
  70
    32
  0
VERTEX
  8
0
  5
10A91
 10
109.969
 20
-369.550
 30
0.00000
  70
    32
  0
VERTEX
  8
0
  5
10A92
 10
109.093
 20
-369.520
 30
0.00000
  70
    32
  0
VERTEX
  8
0
  5
10A93
 10
108.219
 20
-369.428
 30
0.00000
  70
    32
  0
VERTEX
  8
0
  5
10A94
 10
107.350
 20
-369.277
 30
0.00000
  70
    32
  0
VERTEX
  8
0
  5
10A95
 10
106.486
 20
-369.065
 30
0.00000
  70
    32
  0
VERTEX
  8
0
  5
10A96
 10
105.631
 20
-368.793
 30
0.00000
  70
    32
  0
VERTEX
  8
0
  5
10A97
 10
104.787
 20
-368.463
 30
0.00000
  70
    32
  0
VERTEX
  8
0
  5
10A98
 10
103.954
 20
-368.074
 30
0.00000
  70
    32
  0
VERTEX
  8
0
  5
10A99
 10
103.137
 20
-367.628
 30
0.00000
  70
    32
  0
VERTEX
  8
0
  5
10A9A
 10
102.336
 20
-367.126
 30
0.00000
  70
    32
  0
VERTEX
  8
0
  5
10A9B
 10
101.553
 20
-366.568
 30
0.00000
  70
    32
  0
VERTEX
  8
0
  5
10A9C
 10
100.790
 20
-365.958
 30
0.00000
  70
    32
  0
VERTEX
  8
0
  5
10A9D
 10
100.050
 20
-365.295
 30
0.00000
  70
    32
  0
VERTEX
  8
0
  5
10A9E
 10
99.3336
 20
-364.581
 30
0.00000
  70
    32
  0
VERTEX
  8
0
  5
10A9F
 10
98.6427
 20
-363.818
 30
0.00000
  70
    32
  0
VERTEX
  8
0
  5
10AA0
 10
97.9791
 20
-363.009
 30
0.00000
  70
    32
  0
VERTEX
  8
0
  5
10AA1
 10
97.3444
 20
-362.154
 30
0.00000
  70
    32
  0
VERTEX
  8
0
  5
10AA2
 10
96.7402
 20
-361.257
 30
0.00000
  70
    32
  0
VERTEX
  8
0
  5
10AA3
 10
96.1678
 20
-360.318
 30
0.00000
  70
    32
  0
VERTEX
  8
0
  5
10AA4
 10
95.6286
 20
-359.341
 30
0.00000
  70
    32
  0
VERTEX
  8
0
  5
10AA5
 10
95.1240
 20
-358.328
 30
0.00000
  70
    32
  0
VERTEX
  8
0
  5
10AA6
 10
94.6552
 20
-357.281
 30
0.00000
  70
    32
  0
VERTEX
  8
0
  5
10AA7
 10
94.2232
 20
-356.203
 30
0.00000
  70
    32
  0
VERTEX
  8
0
  5
10AA8
 10
93.8292
 20
-355.096
 30
0.00000
  70
    32
  0
VERTEX
  8
0
  5
10AA9
 10
93.4741
 20
-353.963
 30
0.00000
  70
    32
  0
VERTEX
  8
0
  5
10AAA
 10
93.1587
 20
-352.806
 30
0.00000
  70
    32
  0
VERTEX
  8
0
  5
10AAB
 10
92.8838
 20
-351.630
 30
0.00000
  70
    32
  0
VERTEX
  8
0
  5
10AAC
 10
92.6501
 20
-350.435
 30
0.00000
  70
    32
  0
VERTEX
  8
0
  5
10AAD
 10
92.4581
 20
-349.226
 30
0.00000
  70
    32
  0
VERTEX
  8
0
  5
10AAE
 10
92.3082
 20
-348.005
 30
0.00000
  70
    32
  0
VERTEX
  8
0
  5
10AAF
 10
92.2010
 20
-346.775
 30
0.00000
  70
    32
  0
VERTEX
  8
0
  5
10AB0
 10
92.1365
 20
-345.539
 30
0.00000
  70
    32
  0
VERTEX
  8
0
  5
10AB1
 10
92.1150
 20
-344.300
 30
0.00000
  70
    32
  0
VERTEX
  8
0
  5
10AB2
 10
92.1365
 20
-343.061
 30
0.00000
  70
    32
  0
VERTEX
  8
0
  5
10AB3
 10
92.2010
 20
-341.825
 30
0.00000
  70
    32
  0
VERTEX
  8
0
  5
10AB4
 10
92.3082
 20
-340.595
 30
0.00000
  70
    32
  0
VERTEX
  8
0
  5
10AB5
 10
92.4581
 20
-339.374
 30
0.00000
  70
    32
  0
VERTEX
  8
0
  5
10AB6
 10
92.6501
 20
-338.165
 30
0.00000
  70
    32
  0
VERTEX
  8
0
  5
10AB7
 10
92.8838
 20
-336.970
 30
0.00000
  70
    32
  0
VERTEX
  8
0
  5
10AB8
 10
93.1587
 20
-335.794
 30
0.00000
  70
    32
  0
VERTEX
  8
0
  5
10AB9
 10
93.4741
 20
-334.637
 30
0.00000
  70
    32
  0
VERTEX
  8
0
  5
10ABA
 10
93.8292
 20
-333.504
 30
0.00000
  70
    32
  0
VERTEX
  8
0
  5
10ABB
 10
94.2232
 20
-332.397
 30
0.00000
  70
    32
  0
VERTEX
  8
0
  5
10ABC
 10
94.6552
 20
-331.319
 30
0.00000
  70
    32
  0
VERTEX
  8
0
  5
10ABD
 10
95.1240
 20
-330.272
 30
0.00000
  70
    32
  0
VERTEX
  8
0
  5
10ABE
 10
95.6286
 20
-329.259
 30
0.00000
  70
    32
  0
VERTEX
  8
0
  5
10ABF
 10
96.1678
 20
-328.282
 30
0.00000
  70
    32
  0
VERTEX
  8
0
  5
10AC0
 10
96.7402
 20
-327.343
 30
0.00000
  70
    32
  0
VERTEX
  8
0
  5
10AC1
 10
97.3444
 20
-326.446
 30
0.00000
  70
    32
  0
VERTEX
  8
0
  5
10AC2
 10
97.9791
 20
-325.591
 30
0.00000
  70
    32
  0
VERTEX
  8
0
  5
10AC3
 10
98.6427
 20
-324.781
 30
0.00000
  70
    32
  0
VERTEX
  8
0
  5
10AC4
 10
99.3336
 20
-324.019
 30
0.00000
  70
    32
  0
VERTEX
  8
0
  5
10AC5
 10
100.050
 20
-323.305
 30
0.00000
  70
    32
  0
VERTEX
  8
0
  5
10AC6
 10
100.790
 20
-322.642
 30
0.00000
  70
    32
  0
VERTEX
  8
0
  5
10AC7
 10
101.553
 20
-322.031
 30
0.00000
  70
    32
  0
VERTEX
  8
0
  5
10AC8
 10
102.336
 20
-321.474
 30
0.00000
  70
    32
  0
VERTEX
  8
0
  5
10AC9
 10
103.137
 20
-320.972
 30
0.00000
  70
    32
  0
VERTEX
  8
0
  5
10ACA
 10
103.954
 20
-320.526
 30
0.00000
  70
    32
  0
VERTEX
  8
0
  5
10ACB
 10
104.787
 20
-320.137
 30
0.00000
  70
    32
  0
VERTEX
  8
0
  5
10ACC
 10
105.631
 20
-319.807
 30
0.00000
  70
    32
  0
VERTEX
  8
0
  5
10ACD
 10
106.486
 20
-319.535
 30
0.00000
  70
    32
  0
VERTEX
  8
0
  5
10ACE
 10
107.350
 20
-319.323
 30
0.00000
  70
    32
  0
VERTEX
  8
0
  5
10ACF
 10
108.219
 20
-319.172
 30
0.00000
  70
    32
  0
VERTEX
  8
0
  5
10AD0
 10
109.093
 20
-319.080
 30
0.00000
  70
    32
  0
VERTEX
  8
0
  5
10AD1
 10
109.969
 20
-319.050
 30
0.00000
  70
    32
  0
SEQEND
  8
0
  5
10AD2
  0
POLYLINE
  5
10838
  8
0
 10
107.954184172191006
 20
-369.5499689837965889
 30
0.0
 66
     1
 70
     8
  0
VERTEX
  8
0
  5
10AD3
 10
107.954
 20
-369.550
 30
0.00000
  70
    32
  0
VERTEX
  8
0
  5
10AD4
 10
107.516
 20
-369.542
 30
0.00000
  70
    32
  0
VERTEX
  8
0
  5
10AD5
 10
107.078
 20
-369.520
 30
0.00000
  70
    32
  0
VERTEX
  8
0
  5
10AD6
 10
106.641
 20
-369.482
 30
0.00000
  70
    32
  0
VERTEX
  8
0
  5
10AD7
 10
106.204
 20
-369.428
 30
0.00000
  70
    32
  0
VERTEX
  8
0
  5
10AD8
 10
105.769
 20
-369.360
 30
0.00000
  70
    32
  0
VERTEX
  8
0
  5
10AD9
 10
105.334
 20
-369.277
 30
0.00000
  70
    32
  0
VERTEX
  8
0
  5
10ADA
 10
104.902
 20
-369.178
 30
0.00000
  70
    32
  0
VERTEX
  8
0
  5
10ADB
 10
104.471
 20
-369.065
 30
0.00000
  70
    32
  0
VERTEX
  8
0
  5
10ADC
 10
104.042
 20
-368.936
 30
0.00000
  70
    32
  0
VERTEX
  8
0
  5
10ADD
 10
103.616
 20
-368.793
 30
0.00000
  70
    32
  0
VERTEX
  8
0
  5
10ADE
 10
103.192
 20
-368.635
 30
0.00000
  70
    32
  0
VERTEX
  8
0
  5
10ADF
 10
102.771
 20
-368.463
 30
0.00000
  70
    32
  0
VERTEX
  8
0
  5
10AE0
 10
102.354
 20
-368.276
 30
0.00000
  70
    32
  0
VERTEX
  8
0
  5
10AE1
 10
101.939
 20
-368.074
 30
0.00000
  70
    32
  0
VERTEX
  8
0
  5
10AE2
 10
101.528
 20
-367.858
 30
0.00000
  70
    32
  0
VERTEX
  8
0
  5
10AE3
 10
101.122
 20
-367.628
 30
0.00000
  70
    32
  0
VERTEX
  8
0
  5
10AE4
 10
100.719
 20
-367.384
 30
0.00000
  70
    32
  0
VERTEX
  8
0
  5
10AE5
 10
100.320
 20
-367.126
 30
0.00000
  70
    32
  0
VERTEX
  8
0
  5
10AE6
 10
99.9266
 20
-366.854
 30
0.00000
  70
    32
  0
VERTEX
  8
0
  5
10AE7
 10
99.5377
 20
-366.568
 30
0.00000
  70
    32
  0
VERTEX
  8
0
  5
10AE8
 10
99.1538
 20
-366.270
 30
0.00000
  70
    32
  0
VERTEX
  8
0
  5
10AE9
 10
98.7752
 20
-365.958
 30
0.00000
  70
    32
  0
VERTEX
  8
0
  5
10AEA
 10
98.4021
 20
-365.633
 30
0.00000
  70
    32
  0
VERTEX
  8
0
  5
10AEB
 10
98.0348
 20
-365.295
 30
0.00000
  70
    32
  0
VERTEX
  8
0
  5
10AEC
 10
97.6734
 20
-364.944
 30
0.00000
  70
    32
  0
VERTEX
  8
0
  5
10AED
 10
97.3183
 20
-364.581
 30
0.00000
  70
    32
  0
VERTEX
  8
0
  5
10AEE
 10
96.9696
 20
-364.206
 30
0.00000
  70
    32
  0
VERTEX
  8
0
  5
10AEF
 10
96.6274
 20
-363.818
 30
0.00000
  70
    32
  0
VERTEX
  8
0
  5
10AF0
 10
96.2921
 20
-363.419
 30
0.00000
  70
    32
  0
VERTEX
  8
0
  5
10AF1
 10
95.9639
 20
-363.009
 30
0.00000
  70
    32
  0
VERTEX
  8
0
  5
10AF2
 10
95.6428
 20
-362.587
 30
0.00000
  70
    32
  0
VERTEX
  8
0
  5
10AF3
 10
95.3292
 20
-362.154
 30
0.00000
  70
    32
  0
VERTEX
  8
0
  5
10AF4
 10
95.0232
 20
-361.711
 30
0.00000
  70
    32
  0
VERTEX
  8
0
  5
10AF5
 10
94.7249
 20
-361.257
 30
0.00000
  70
    32
  0
VERTEX
  8
0
  5
10AF6
 10
94.4346
 20
-360.793
 30
0.00000
  70
    32
  0
VERTEX
  8
0
  5
10AF7
 10
94.1525
 20
-360.318
 30
0.00000
  70
    32
  0
VERTEX
  8
0
  5
10AF8
 10
93.8787
 20
-359.835
 30
0.00000
  70
    32
  0
VERTEX
  8
0
  5
10AF9
 10
93.6134
 20
-359.341
 30
0.00000
  70
    32
  0
VERTEX
  8
0
  5
10AFA
 10
93.3567
 20
-358.839
 30
0.00000
  70
    32
  0
VERTEX
  8
0
  5
10AFB
 10
93.1088
 20
-358.328
 30
0.00000
  70
    32
  0
VERTEX
  8
0
  5
10AFC
 10
92.8698
 20
-357.809
 30
0.00000
  70
    32
  0
VERTEX
  8
0
  5
10AFD
 10
92.6399
 20
-357.281
 30
0.00000
  70
    32
  0
VERTEX
  8
0
  5
10AFE
 10
92.4193
 20
-356.746
 30
0.00000
  70
    32
  0
VERTEX
  8
0
  5
10AFF
 10
92.2080
 20
-356.203
 30
0.00000
  70
    32
  0
VERTEX
  8
0
  5
10B00
 10
92.0062
 20
-355.653
 30
0.00000
  70
    32
  0
VERTEX
  8
0
  5
10B01
 10
91.8140
 20
-355.096
 30
0.00000
  70
    32
  0
VERTEX
  8
0
  5
10B02
 10
91.6315
 20
-354.532
 30
0.00000
  70
    32
  0
VERTEX
  8
0
  5
10B03
 10
91.4588
 20
-353.963
 30
0.00000
  70
    32
  0
VERTEX
  8
0
  5
10B04
 10
91.2961
 20
-353.387
 30
0.00000
  70
    32
  0
VERTEX
  8
0
  5
10B05
 10
91.1434
 20
-352.806
 30
0.00000
  70
    32
  0
VERTEX
  8
0
  5
10B06
 10
91.0009
 20
-352.220
 30
0.00000
  70
    32
  0
VERTEX
  8
0
  5
10B07
 10
90.8685
 20
-351.630
 30
0.00000
  70
    32
  0
VERTEX
  8
0
  5
10B08
 10
90.7465
 20
-351.034
 30
0.00000
  70
    32
  0
VERTEX
  8
0
  5
10B09
 10
90.6348
 20
-350.435
 30
0.00000
  70
    32
  0
VERTEX
  8
0
  5
10B0A
 10
90.5336
 20
-349.832
 30
0.00000
  70
    32
  0
VERTEX
  8
0
  5
10B0B
 10
90.4428
 20
-349.226
 30
0.00000
  70
    32
  0
VERTEX
  8
0
  5
10B0C
 10
90.3626
 20
-348.617
 30
0.00000
  70
    32
  0
VERTEX
  8
0
  5
10B0D
 10
90.2930
 20
-348.005
 30
0.00000
  70
    32
  0
VERTEX
  8
0
  5
10B0E
 10
90.2340
 20
-347.391
 30
0.00000
  70
    32
  0
VERTEX
  8
0
  5
10B0F
 10
90.1857
 20
-346.775
 30
0.00000
  70
    32
  0
VERTEX
  8
0
  5
10B10
 10
90.1481
 20
-346.157
 30
0.00000
  70
    32
  0
VERTEX
  8
0
  5
10B11
 10
90.1212
 20
-345.539
 30
0.00000
  70
    32
  0
VERTEX
  8
0
  5
10B12
 10
90.1051
 20
-344.920
 30
0.00000
  70
    32
  0
VERTEX
  8
0
  5
10B13
 10
90.0997
 20
-344.300
 30
0.00000
  70
    32
  0
VERTEX
  8
0
  5
10B14
 10
90.1051
 20
-343.680
 30
0.00000
  70
    32
  0
VERTEX
  8
0
  5
10B15
 10
90.1212
 20
-343.061
 30
0.00000
  70
    32
  0
VERTEX
  8
0
  5
10B16
 10
90.1481
 20
-342.442
 30
0.00000
  70
    32
  0
VERTEX
  8
0
  5
10B17
 10
90.1857
 20
-341.825
 30
0.00000
  70
    32
  0
VERTEX
  8
0
  5
10B18
 10
90.2340
 20
-341.209
 30
0.00000
  70
    32
  0
VERTEX
  8
0
  5
10B19
 10
90.2930
 20
-340.595
 30
0.00000
  70
    32
  0
VERTEX
  8
0
  5
10B1A
 10
90.3626
 20
-339.983
 30
0.00000
  70
    32
  0
VERTEX
  8
0
  5
10B1B
 10
90.4428
 20
-339.374
 30
0.00000
  70
    32
  0
VERTEX
  8
0
  5
10B1C
 10
90.5336
 20
-338.768
 30
0.00000
  70
    32
  0
VERTEX
  8
0
  5
10B1D
 10
90.6348
 20
-338.165
 30
0.00000
  70
    32
  0
VERTEX
  8
0
  5
10B1E
 10
90.7465
 20
-337.565
 30
0.00000
  70
    32
  0
VERTEX
  8
0
  5
10B1F
 10
90.8685
 20
-336.970
 30
0.00000
  70
    32
  0
VERTEX
  8
0
  5
10B20
 10
91.0009
 20
-336.380
 30
0.00000
  70
    32
  0
VERTEX
  8
0
  5
10B21
 10
91.1434
 20
-335.794
 30
0.00000
  70
    32
  0
VERTEX
  8
0
  5
10B22
 10
91.2961
 20
-335.213
 30
0.00000
  70
    32
  0
VERTEX
  8
0
  5
10B23
 10
91.4588
 20
-334.637
 30
0.00000
  70
    32
  0
VERTEX
  8
0
  5
10B24
 10
91.6315
 20
-334.068
 30
0.00000
  70
    32
  0
VERTEX
  8
0
  5
10B25
 10
91.8140
 20
-333.504
 30
0.00000
  70
    32
  0
VERTEX
  8
0
  5
10B26
 10
92.0062
 20
-332.947
 30
0.00000
  70
    32
  0
VERTEX
  8
0
  5
10B27
 10
92.2080
 20
-332.397
 30
0.00000
  70
    32
  0
VERTEX
  8
0
  5
10B28
 10
92.4193
 20
-331.854
 30
0.00000
  70
    32
  0
VERTEX
  8
0
  5
10B29
 10
92.6399
 20
-331.319
 30
0.00000
  70
    32
  0
VERTEX
  8
0
  5
10B2A
 10
92.8698
 20
-330.791
 30
0.00000
  70
    32
  0
VERTEX
  8
0
  5
10B2B
 10
93.1088
 20
-330.272
 30
0.00000
  70
    32
  0
VERTEX
  8
0
  5
10B2C
 10
93.3567
 20
-329.761
 30
0.00000
  70
    32
  0
VERTEX
  8
0
  5
10B2D
 10
93.6134
 20
-329.259
 30
0.00000
  70
    32
  0
VERTEX
  8
0
  5
10B2E
 10
93.8787
 20
-328.765
 30
0.00000
  70
    32
  0
VERTEX
  8
0
  5
10B2F
 10
94.1525
 20
-328.282
 30
0.00000
  70
    32
  0
VERTEX
  8
0
  5
10B30
 10
94.4346
 20
-327.807
 30
0.00000
  70
    32
  0
VERTEX
  8
0
  5
10B31
 10
94.7249
 20
-327.343
 30
0.00000
  70
    32
  0
VERTEX
  8
0
  5
10B32
 10
95.0232
 20
-326.889
 30
0.00000
  70
    32
  0
VERTEX
  8
0
  5
10B33
 10
95.3292
 20
-326.446
 30
0.00000
  70
    32
  0
VERTEX
  8
0
  5
10B34
 10
95.6428
 20
-326.013
 30
0.00000
  70
    32
  0
VERTEX
  8
0
  5
10B35
 10
95.9639
 20
-325.591
 30
0.00000
  70
    32
  0
VERTEX
  8
0
  5
10B36
 10
96.2921
 20
-325.180
 30
0.00000
  70
    32
  0
VERTEX
  8
0
  5
10B37
 10
96.6274
 20
-324.781
 30
0.00000
  70
    32
  0
VERTEX
  8
0
  5
10B38
 10
96.9696
 20
-324.394
 30
0.00000
  70
    32
  0
VERTEX
  8
0
  5
10B39
 10
97.3183
 20
-324.019
 30
0.00000
  70
    32
  0
VERTEX
  8
0
  5
10B3A
 10
97.6734
 20
-323.656
 30
0.00000
  70
    32
  0
VERTEX
  8
0
  5
10B3B
 10
98.0348
 20
-323.305
 30
0.00000
  70
    32
  0
VERTEX
  8
0
  5
10B3C
 10
98.4021
 20
-322.967
 30
0.00000
  70
    32
  0
VERTEX
  8
0
  5
10B3D
 10
98.7752
 20
-322.642
 30
0.00000
  70
    32
  0
VERTEX
  8
0
  5
10B3E
 10
99.1538
 20
-322.330
 30
0.00000
  70
    32
  0
VERTEX
  8
0
  5
10B3F
 10
99.5377
 20
-322.031
 30
0.00000
  70
    32
  0
VERTEX
  8
0
  5
10B40
 10
99.9266
 20
-321.746
 30
0.00000
  70
    32
  0
VERTEX
  8
0
  5
10B41
 10
100.320
 20
-321.474
 30
0.00000
  70
    32
  0
VERTEX
  8
0
  5
10B42
 10
100.719
 20
-321.216
 30
0.00000
  70
    32
  0
VERTEX
  8
0
  5
10B43
 10
101.122
 20
-320.972
 30
0.00000
  70
    32
  0
VERTEX
  8
0
  5
10B44
 10
101.528
 20
-320.742
 30
0.00000
  70
    32
  0
VERTEX
  8
0
  5
10B45
 10
101.939
 20
-320.526
 30
0.00000
  70
    32
  0
VERTEX
  8
0
  5
10B46
 10
102.354
 20
-320.324
 30
0.00000
  70
    32
  0
VERTEX
  8
0
  5
10B47
 10
102.771
 20
-320.137
 30
0.00000
  70
    32
  0
VERTEX
  8
0
  5
10B48
 10
103.192
 20
-319.965
 30
0.00000
  70
    32
  0
VERTEX
  8
0
  5
10B49
 10
103.616
 20
-319.807
 30
0.00000
  70
    32
  0
VERTEX
  8
0
  5
10B4A
 10
104.042
 20
-319.663
 30
0.00000
  70
    32
  0
VERTEX
  8
0
  5
10B4B
 10
104.471
 20
-319.535
 30
0.00000
  70
    32
  0
VERTEX
  8
0
  5
10B4C
 10
104.902
 20
-319.422
 30
0.00000
  70
    32
  0
VERTEX
  8
0
  5
10B4D
 10
105.334
 20
-319.323
 30
0.00000
  70
    32
  0
VERTEX
  8
0
  5
10B4E
 10
105.769
 20
-319.240
 30
0.00000
  70
    32
  0
VERTEX
  8
0
  5
10B4F
 10
106.204
 20
-319.172
 30
0.00000
  70
    32
  0
VERTEX
  8
0
  5
10B50
 10
106.641
 20
-319.118
 30
0.00000
  70
    32
  0
VERTEX
  8
0
  5
10B51
 10
107.078
 20
-319.080
 30
0.00000
  70
    32
  0
VERTEX
  8
0
  5
10B52
 10
107.516
 20
-319.058
 30
0.00000
  70
    32
  0
VERTEX
  8
0
  5
10B53
 10
107.954
 20
-319.050
 30
0.00000
  70
    32
  0
SEQEND
  8
0
  5
10B54
  0
LINE
  5
10839
  8
0
 10
107.954184172191006
 20
-319.0499689837965889
 30
0.0
 11
109.9694384985727993
 21
-319.0499689837965889
 31
0.0
  0
POLYLINE
  5
1083A
  8
0
 10
109.9694384985726998
 20
-332.7999689837965889
 30
0.0
 66
     1
 70
     8
  0
VERTEX
  8
0
  5
10B55
 10
109.969
 20
-332.800
 30
0.00000
  70
    32
  0
VERTEX
  8
0
  5
10B56
 10
110.368
 20
-332.814
 30
0.00000
  70
    32
  0
VERTEX
  8
0
  5
10B57
 10
110.766
 20
-332.855
 30
0.00000
  70
    32
  0
VERTEX
  8
0
  5
10B58
 10
111.163
 20
-332.924
 30
0.00000
  70
    32
  0
VERTEX
  8
0
  5
10B59
 10
111.556
 20
-333.021
 30
0.00000
  70
    32
  0
VERTEX
  8
0
  5
10B5A
 10
111.945
 20
-333.145
 30
0.00000
  70
    32
  0
VERTEX
  8
0
  5
10B5B
 10
112.330
 20
-333.295
 30
0.00000
  70
    32
  0
VERTEX
  8
0
  5
10B5C
 10
112.709
 20
-333.472
 30
0.00000
  70
    32
  0
VERTEX
  8
0
  5
10B5D
 10
113.081
 20
-333.675
 30
0.00000
  70
    32
  0
VERTEX
  8
0
  5
10B5E
 10
113.446
 20
-333.904
 30
0.00000
  70
    32
  0
VERTEX
  8
0
  5
10B5F
 10
113.803
 20
-334.158
 30
0.00000
  70
    32
  0
VERTEX
  8
0
  5
10B60
 10
114.150
 20
-334.436
 30
0.00000
  70
    32
  0
VERTEX
  8
0
  5
10B61
 10
114.487
 20
-334.738
 30
0.00000
  70
    32
  0
VERTEX
  8
0
  5
10B62
 10
114.814
 20
-335.063
 30
0.00000
  70
    32
  0
VERTEX
  8
0
  5
10B63
 10
115.128
 20
-335.410
 30
0.00000
  70
    32
  0
VERTEX
  8
0
  5
10B64
 10
115.430
 20
-335.779
 30
0.00000
  70
    32
  0
VERTEX
  8
0
  5
10B65
 10
115.719
 20
-336.168
 30
0.00000
  70
    32
  0
VERTEX
  8
0
  5
10B66
 10
115.995
 20
-336.577
 30
0.00000
  70
    32
  0
VERTEX
  8
0
  5
10B67
 10
116.255
 20
-337.004
 30
0.00000
  70
    32
  0
VERTEX
  8
0
  5
10B68
 10
116.501
 20
-337.449
 30
0.00000
  70
    32
  0
VERTEX
  8
0
  5
10B69
 10
116.731
 20
-337.911
 30
0.00000
  70
    32
  0
VERTEX
  8
0
  5
10B6A
 10
116.944
 20
-338.388
 30
0.00000
  70
    32
  0
VERTEX
  8
0
  5
10B6B
 10
117.141
 20
-338.879
 30
0.00000
  70
    32
  0
VERTEX
  8
0
  5
10B6C
 10
117.320
 20
-339.383
 30
0.00000
  70
    32
  0
VERTEX
  8
0
  5
10B6D
 10
117.482
 20
-339.899
 30
0.00000
  70
    32
  0
VERTEX
  8
0
  5
10B6E
 10
117.626
 20
-340.426
 30
0.00000
  70
    32
  0
VERTEX
  8
0
  5
10B6F
 10
117.751
 20
-340.962
 30
0.00000
  70
    32
  0
VERTEX
  8
0
  5
10B70
 10
117.857
 20
-341.506
 30
0.00000
  70
    32
  0
VERTEX
  8
0
  5
10B71
 10
117.945
 20
-342.056
 30
0.00000
  70
    32
  0
VERTEX
  8
0
  5
10B72
 10
118.013
 20
-342.613
 30
0.00000
  70
    32
  0
VERTEX
  8
0
  5
10B73
 10
118.062
 20
-343.173
 30
0.00000
  70
    32
  0
VERTEX
  8
0
  5
10B74
 10
118.091
 20
-343.736
 30
0.00000
  70
    32
  0
VERTEX
  8
0
  5
10B75
 10
118.101
 20
-344.300
 30
0.00000
  70
    32
  0
VERTEX
  8
0
  5
10B76
 10
118.091
 20
-344.864
 30
0.00000
  70
    32
  0
VERTEX
  8
0
  5
10B77
 10
118.062
 20
-345.427
 30
0.00000
  70
    32
  0
VERTEX
  8
0
  5
10B78
 10
118.013
 20
-345.987
 30
0.00000
  70
    32
  0
VERTEX
  8
0
  5
10B79
 10
117.945
 20
-346.544
 30
0.00000
  70
    32
  0
VERTEX
  8
0
  5
10B7A
 10
117.857
 20
-347.094
 30
0.00000
  70
    32
  0
VERTEX
  8
0
  5
10B7B
 10
117.751
 20
-347.638
 30
0.00000
  70
    32
  0
VERTEX
  8
0
  5
10B7C
 10
117.626
 20
-348.174
 30
0.00000
  70
    32
  0
VERTEX
  8
0
  5
10B7D
 10
117.482
 20
-348.701
 30
0.00000
  70
    32
  0
VERTEX
  8
0
  5
10B7E
 10
117.320
 20
-349.217
 30
0.00000
  70
    32
  0
VERTEX
  8
0
  5
10B7F
 10
117.141
 20
-349.721
 30
0.00000
  70
    32
  0
VERTEX
  8
0
  5
10B80
 10
116.944
 20
-350.212
 30
0.00000
  70
    32
  0
VERTEX
  8
0
  5
10B81
 10
116.731
 20
-350.689
 30
0.00000
  70
    32
  0
VERTEX
  8
0
  5
10B82
 10
116.501
 20
-351.151
 30
0.00000
  70
    32
  0
VERTEX
  8
0
  5
10B83
 10
116.255
 20
-351.595
 30
0.00000
  70
    32
  0
VERTEX
  8
0
  5
10B84
 10
115.995
 20
-352.023
 30
0.00000
  70
    32
  0
VERTEX
  8
0
  5
10B85
 10
115.719
 20
-352.432
 30
0.00000
  70
    32
  0
VERTEX
  8
0
  5
10B86
 10
115.430
 20
-352.821
 30
0.00000
  70
    32
  0
VERTEX
  8
0
  5
10B87
 10
115.128
 20
-353.190
 30
0.00000
  70
    32
  0
VERTEX
  8
0
  5
10B88
 10
114.814
 20
-353.537
 30
0.00000
  70
    32
  0
VERTEX
  8
0
  5
10B89
 10
114.487
 20
-353.862
 30
0.00000
  70
    32
  0
VERTEX
  8
0
  5
10B8A
 10
114.150
 20
-354.164
 30
0.00000
  70
    32
  0
VERTEX
  8
0
  5
10B8B
 10
113.803
 20
-354.442
 30
0.00000
  70
    32
  0
VERTEX
  8
0
  5
10B8C
 10
113.446
 20
-354.696
 30
0.00000
  70
    32
  0
VERTEX
  8
0
  5
10B8D
 10
113.081
 20
-354.925
 30
0.00000
  70
    32
  0
VERTEX
  8
0
  5
10B8E
 10
112.709
 20
-355.128
 30
0.00000
  70
    32
  0
VERTEX
  8
0
  5
10B8F
 10
112.330
 20
-355.305
 30
0.00000
  70
    32
  0
VERTEX
  8
0
  5
10B90
 10
111.945
 20
-355.455
 30
0.00000
  70
    32
  0
VERTEX
  8
0
  5
10B91
 10
111.556
 20
-355.579
 30
0.00000
  70
    32
  0
VERTEX
  8
0
  5
10B92
 10
111.163
 20
-355.675
 30
0.00000
  70
    32
  0
VERTEX
  8
0
  5
10B93
 10
110.766
 20
-355.745
 30
0.00000
  70
    32
  0
VERTEX
  8
0
  5
10B94
 10
110.368
 20
-355.786
 30
0.00000
  70
    32
  0
VERTEX
  8
0
  5
10B95
 10
109.969
 20
-355.800
 30
0.00000
  70
    32
  0
VERTEX
  8
0
  5
10B96
 10
109.570
 20
-355.786
 30
0.00000
  70
    32
  0
VERTEX
  8
0
  5
10B97
 10
109.172
 20
-355.745
 30
0.00000
  70
    32
  0
VERTEX
  8
0
  5
10B98
 10
108.776
 20
-355.675
 30
0.00000
  70
    32
  0
VERTEX
  8
0
  5
10B99
 10
108.383
 20
-355.579
 30
0.00000
  70
    32
  0
VERTEX
  8
0
  5
10B9A
 10
107.994
 20
-355.455
 30
0.00000
  70
    32
  0
VERTEX
  8
0
  5
10B9B
 10
107.609
 20
-355.305
 30
0.00000
  70
    32
  0
VERTEX
  8
0
  5
10B9C
 10
107.230
 20
-355.128
 30
0.00000
  70
    32
  0
VERTEX
  8
0
  5
10B9D
 10
106.858
 20
-354.925
 30
0.00000
  70
    32
  0
VERTEX
  8
0
  5
10B9E
 10
106.493
 20
-354.696
 30
0.00000
  70
    32
  0
VERTEX
  8
0
  5
10B9F
 10
106.136
 20
-354.442
 30
0.00000
  70
    32
  0
VERTEX
  8
0
  5
10BA0
 10
105.789
 20
-354.164
 30
0.00000
  70
    32
  0
VERTEX
  8
0
  5
10BA1
 10
105.452
 20
-353.862
 30
0.00000
  70
    32
  0
VERTEX
  8
0
  5
10BA2
 10
105.125
 20
-353.537
 30
0.00000
  70
    32
  0
VERTEX
  8
0
  5
10BA3
 10
104.811
 20
-353.190
 30
0.00000
  70
    32
  0
VERTEX
  8
0
  5
10BA4
 10
104.509
 20
-352.821
 30
0.00000
  70
    32
  0
VERTEX
  8
0
  5
10BA5
 10
104.219
 20
-352.432
 30
0.00000
  70
    32
  0
VERTEX
  8
0
  5
10BA6
 10
103.944
 20
-352.023
 30
0.00000
  70
    32
  0
VERTEX
  8
0
  5
10BA7
 10
103.684
 20
-351.595
 30
0.00000
  70
    32
  0
VERTEX
  8
0
  5
10BA8
 10
103.438
 20
-351.151
 30
0.00000
  70
    32
  0
VERTEX
  8
0
  5
10BA9
 10
103.208
 20
-350.689
 30
0.00000
  70
    32
  0
VERTEX
  8
0
  5
10BAA
 10
102.995
 20
-350.212
 30
0.00000
  70
    32
  0
VERTEX
  8
0
  5
10BAB
 10
102.798
 20
-349.721
 30
0.00000
  70
    32
  0
VERTEX
  8
0
  5
10BAC
 10
102.618
 20
-349.217
 30
0.00000
  70
    32
  0
VERTEX
  8
0
  5
10BAD
 10
102.457
 20
-348.701
 30
0.00000
  70
    32
  0
VERTEX
  8
0
  5
10BAE
 10
102.313
 20
-348.174
 30
0.00000
  70
    32
  0
VERTEX
  8
0
  5
10BAF
 10
102.188
 20
-347.638
 30
0.00000
  70
    32
  0
VERTEX
  8
0
  5
10BB0
 10
102.081
 20
-347.094
 30
0.00000
  70
    32
  0
VERTEX
  8
0
  5
10BB1
 10
101.994
 20
-346.544
 30
0.00000
  70
    32
  0
VERTEX
  8
0
  5
10BB2
 10
101.926
 20
-345.987
 30
0.00000
  70
    32
  0
VERTEX
  8
0
  5
10BB3
 10
101.877
 20
-345.427
 30
0.00000
  70
    32
  0
VERTEX
  8
0
  5
10BB4
 10
101.848
 20
-344.864
 30
0.00000
  70
    32
  0
VERTEX
  8
0
  5
10BB5
 10
101.838
 20
-344.300
 30
0.00000
  70
    32
  0
VERTEX
  8
0
  5
10BB6
 10
101.848
 20
-343.736
 30
0.00000
  70
    32
  0
VERTEX
  8
0
  5
10BB7
 10
101.877
 20
-343.173
 30
0.00000
  70
    32
  0
VERTEX
  8
0
  5
10BB8
 10
101.926
 20
-342.613
 30
0.00000
  70
    32
  0
VERTEX
  8
0
  5
10BB9
 10
101.994
 20
-342.056
 30
0.00000
  70
    32
  0
VERTEX
  8
0
  5
10BBA
 10
102.081
 20
-341.506
 30
0.00000
  70
    32
  0
VERTEX
  8
0
  5
10BBB
 10
102.188
 20
-340.962
 30
0.00000
  70
    32
  0
VERTEX
  8
0
  5
10BBC
 10
102.313
 20
-340.426
 30
0.00000
  70
    32
  0
VERTEX
  8
0
  5
10BBD
 10
102.457
 20
-339.899
 30
0.00000
  70
    32
  0
VERTEX
  8
0
  5
10BBE
 10
102.618
 20
-339.383
 30
0.00000
  70
    32
  0
VERTEX
  8
0
  5
10BBF
 10
102.798
 20
-338.879
 30
0.00000
  70
    32
  0
VERTEX
  8
0
  5
10BC0
 10
102.995
 20
-338.388
 30
0.00000
  70
    32
  0
VERTEX
  8
0
  5
10BC1
 10
103.208
 20
-337.911
 30
0.00000
  70
    32
  0
VERTEX
  8
0
  5
10BC2
 10
103.438
 20
-337.449
 30
0.00000
  70
    32
  0
VERTEX
  8
0
  5
10BC3
 10
103.684
 20
-337.004
 30
0.00000
  70
    32
  0
VERTEX
  8
0
  5
10BC4
 10
103.944
 20
-336.577
 30
0.00000
  70
    32
  0
VERTEX
  8
0
  5
10BC5
 10
104.219
 20
-336.168
 30
0.00000
  70
    32
  0
VERTEX
  8
0
  5
10BC6
 10
104.509
 20
-335.779
 30
0.00000
  70
    32
  0
VERTEX
  8
0
  5
10BC7
 10
104.811
 20
-335.410
 30
0.00000
  70
    32
  0
VERTEX
  8
0
  5
10BC8
 10
105.125
 20
-335.063
 30
0.00000
  70
    32
  0
VERTEX
  8
0
  5
10BC9
 10
105.452
 20
-334.738
 30
0.00000
  70
    32
  0
VERTEX
  8
0
  5
10BCA
 10
105.789
 20
-334.436
 30
0.00000
  70
    32
  0
VERTEX
  8
0
  5
10BCB
 10
106.136
 20
-334.158
 30
0.00000
  70
    32
  0
VERTEX
  8
0
  5
10BCC
 10
106.493
 20
-333.904
 30
0.00000
  70
    32
  0
VERTEX
  8
0
  5
10BCD
 10
106.858
 20
-333.675
 30
0.00000
  70
    32
  0
VERTEX
  8
0
  5
10BCE
 10
107.230
 20
-333.472
 30
0.00000
  70
    32
  0
VERTEX
  8
0
  5
10BCF
 10
107.609
 20
-333.295
 30
0.00000
  70
    32
  0
VERTEX
  8
0
  5
10BD0
 10
107.994
 20
-333.145
 30
0.00000
  70
    32
  0
VERTEX
  8
0
  5
10BD1
 10
108.383
 20
-333.021
 30
0.00000
  70
    32
  0
VERTEX
  8
0
  5
10BD2
 10
108.776
 20
-332.924
 30
0.00000
  70
    32
  0
VERTEX
  8
0
  5
10BD3
 10
109.172
 20
-332.855
 30
0.00000
  70
    32
  0
VERTEX
  8
0
  5
10BD4
 10
109.570
 20
-332.814
 30
0.00000
  70
    32
  0
VERTEX
  8
0
  5
10BD5
 10
109.969
 20
-332.800
 30
0.00000
  70
    32
  0
SEQEND
  8
0
  5
10BD6
  0
CIRCLE
  5
1083B
  8
0
 10
0.0
 20
-344.2999689837965889
 30
0.0
 40
25.0000152587896309
  0
CIRCLE
  5
1083C
  8
0
 10
0.0
 20
-344.2999689837965889
 30
0.0
 40
8.0
  0
CIRCLE
  5
1083D
  8
0
 10
0.0
 20
-344.2999689837965889
 30
0.0
 40
7.50000000024
  0
LINE
  5
1083E
  8
0
 10
56.0639552587896333
 20
-349.0500289837966079
 30
0.0
 11
53.0000152587896309
 21
-348.9542689837966236
 31
0.0
  0
LINE
  5
1083F
  8
0
 10
56.0653752587896932
 20
-339.5499689837965889
 30
0.0
 11
53.0000552587897573
 21
-339.6457889837964785
 31
0.0
  0
LINE
  5
10840
  8
0
 10
55.0000152587896309
 20
-349.0168289837965858
 30
0.0
 11
55.0000152587896309
 21
-339.5832289837965163
 31
0.0
  0
LINE
  5
10841
  8
0
 10
58.0639752587895828
 20
-339.5499689837965889
 30
0.0
 11
56.0639752587895828
 21
-339.5499689837965889
 31
0.0
  0
LINE
  5
10842
  8
0
 10
58.0639752587895828
 20
-349.0499689837965889
 30
0.0
 11
56.0639752587895828
 21
-349.0499689837965889
 31
0.0
  0
LINE
  5
10843
  8
0
 10
58.0639752587895828
 20
-349.2999689837965889
 30
0.0
 11
58.0639752587895828
 21
-339.2999689837965889
 31
0.0
  0
LINE
  5
10844
  8
0
 10
70.5639552587896333
 20
-349.2999689837965889
 30
0.0
 11
58.0639752587895828
 21
-349.2999689837965889
 31
0.0
  0
LINE
  5
10845
  8
0
 10
70.5639552587896333
 20
-339.2999689837965889
 30
0.0
 11
58.0639752587895828
 21
-339.2999689837965889
 31
0.0
  0
LINE
  5
10846
  8
0
 10
70.5639552587896333
 20
-349.2999689837965889
 30
0.0
 11
70.5639552587896333
 21
-339.2999689837965889
 31
0.0
  0
CIRCLE
  5
10847
  8
0
 10
0.0
 20
-344.2999689837965889
 30
0.0
 40
53.0000152587896309
  0
ARC
  5
10848
  8
0
 10
0.0
 20
-344.2999689837965889
 30
0.0
 40
61.0000752587897068
 50
4.701644383034278
 51
355.2983556169655799
  0
LINE
  5
10849
  8
0
 10
92.522520295602817
 20
-356.9999689837965775
 30
0.0
 11
59.6633822505731288
 21
-356.9999689837965775
 31
0.0
  0
LINE
  5
1084A
  8
0
 10
92.522520295602817
 20
-331.5999689837966002
 30
0.0
 11
59.6633822505731288
 21
-331.5999689837966002
 31
0.0
  0
ARC
  5
1084B
  8
0
 10
0.0
 20
-344.2999689837965889
 30
0.0
 40
82.5
 50
188.8552897689280883
 51
351.1447102310718265
  0
ARC
  5
1084C
  8
0
 10
0.0
 20
-344.2999689837965889
 30
0.0
 40
82.5
 50
8.8552897689281753
 51
171.144710231071798
  0
LINE
  5
1084D
  8
0
 10
27.5000013750000107
 20
-45.5081363886473014
 30
0.0
 11
40.4999999999999929
 21
-34.2497954135965301
 31
0.0
  0
LINE
  5
1084E
  8
0
 10
40.4999999999999929
 20
-34.2497954135965301
 30
0.0
 11
40.4999999999999929
 21
-33.0000016125000002
 31
0.0
  0
LINE
  5
1084F
  8
0
 10
-45.0
 20
37.2000310162035319
 30
0.0
 11
-45.0
 21
32.7000326662034126
 31
0.0
  0
LINE
  5
10850
  8
0
 10
45.0
 20
37.2000310162035319
 30
0.0
 11
45.0
 21
32.7000326662034126
 31
0.0
  0
ENDSEC
  0
EOF
