  0
SECTION
  2
HEADER
  9
$ACADVER
  1
AC1015
  9
$ACADMAINTVER
 70
    14
  9
$DWGCODEPAGE
  3
ANSI_932
  9
$INSBASE
 10
0.0
 20
0.0
 30
0.0
  9
$EXTMIN
 10
90.35326499977509
 20
58.72641886211432
 30
-0.000000000000013
  9
$EXTMAX
 10
2183.509393564758
 20
797.1247494075837
 30
0.0000000000000023
  9
$LIMMIN
 10
-580.5701293945312
 20
0.0
  9
$LIMMAX
 10
0.0
 20
407.8999938964844
  9
$ORTHOMODE
 70
     0
  9
$REGENMODE
 70
     1
  9
$FILLMODE
 70
     1
  9
$QTEXTMODE
 70
     0
  9
$MIRRTEXT
 70
     1
  9
$LTSCALE
 40
1.0
  9
$ATTMODE
 70
     1
  9
$TEXTSIZE
 40
0.2
  9
$TRACEWID
 40
0.05
  9
$TEXTSTYLE
  7
STANDARD
  9
$CLAYER
  8
0
  9
$CELTYPE
  6
CONTINUOUS
  9
$CECOLOR
 62
   256
  9
$CELTSCALE
 40
1.0
  9
$DISPSILH
 70
     0
  9
$DIMSCALE
 40
1.0
  9
$DIMASZ
 40
1.0
  9
$DIMEXO
 40
2.54
  9
$DIMDLI
 40
0.38
  9
$DIMRND
 40
0.0
  9
$DIMDLE
 40
0.0
  9
$DIMEXE
 40
2.54
  9
$DIMTP
 40
0.0
  9
$DIMTM
 40
0.0
  9
$DIMTXT
 40
3.200000047683714
  9
$DIMCEN
 40
0.09
  9
$DIMTSZ
 40
0.0
  9
$DIMTOL
 70
     0
  9
$DIMLIM
 70
     0
  9
$DIMTIH
 70
     0
  9
$DIMTOH
 70
     0
  9
$DIMSE1
 70
     0
  9
$DIMSE2
 70
     0
  9
$DIMTAD
 70
     1
  9
$DIMZIN
 70
     0
  9
$DIMBLK
  1

  9
$DIMASO
 70
     1
  9
$DIMSHO
 70
     0
  9
$DIMPOST
  1

  9
$DIMAPOST
  1

  9
$DIMALT
 70
     0
  9
$DIMALTD
 70
     2
  9
$DIMALTF
 40
25.4
  9
$DIMLFAC
 40
1.0
  9
$DIMTOFL
 70
     0
  9
$DIMTVP
 40
1.0
  9
$DIMTIX
 70
     0
  9
$DIMSOXD
 70
     0
  9
$DIMSAH
 70
     0
  9
$DIMBLK1
  1

  9
$DIMBLK2
  1

  9
$DIMSTYLE
  2
STANDARD
  9
$DIMCLRD
 70
     0
  9
$DIMCLRE
 70
     0
  9
$DIMCLRT
 70
     0
  9
$DIMTFAC
 40
1.0
  9
$DIMGAP
 40
1.600000023841857
  9
$DIMJUST
 70
     0
  9
$DIMSD1
 70
     0
  9
$DIMSD2
 70
     0
  9
$DIMTOLJ
 70
     1
  9
$DIMTZIN
 70
     0
  9
$DIMALTZ
 70
     0
  9
$DIMALTTZ
 70
     0
  9
$DIMUPT
 70
     0
  9
$DIMDEC
 70
     4
  9
$DIMTDEC
 70
     4
  9
$DIMALTU
 70
     2
  9
$DIMALTTD
 70
     2
  9
$DIMTXSTY
  7
STANDARD
  9
$DIMAUNIT
 70
     0
  9
$DIMADEC
 70
     0
  9
$DIMALTRND
 40
0.0
  9
$DIMAZIN
 70
     0
  9
$DIMDSEP
 70
    46
  9
$DIMATFIT
 70
     3
  9
$DIMFRAC
 70
     0
  9
$DIMLDRBLK
  1

  9
$DIMLUNIT
 70
     2
  9
$DIMLWD
 70
    -2
  9
$DIMLWE
 70
    -2
  9
$DIMTMOVE
 70
     0
  9
$LUNITS
 70
     2
  9
$LUPREC
 70
     4
  9
$SKETCHINC
 40
0.1
  9
$FILLETRAD
 40
0.0
  9
$AUNITS
 70
     0
  9
$AUPREC
 70
     0
  9
$MENU
  1
.
  9
$ELEVATION
 40
0.0
  9
$PELEVATION
 40
0.0
  9
$THICKNESS
 40
0.0
  9
$LIMCHECK
 70
     0
  9
$CHAMFERA
 40
0.0
  9
$CHAMFERB
 40
0.0
  9
$CHAMFERC
 40
0.0
  9
$CHAMFERD
 40
0.0
  9
$SKPOLY
 70
     0
  9
$TDCREATE
 40
2452717.604314595
  9
$TDUCREATE
 40
2452717.229314595
  9
$TDUPDATE
 40
2456899.672947454
  9
$TDUUPDATE
 40
2456899.297947453
  9
$TDINDWG
 40
0.2827511921
  9
$TDUSRTIMER
 40
0.2827511921
  9
$USRTIMER
 70
     1
  9
$ANGBASE
 50
0.0
  9
$ANGDIR
 70
     0
  9
$PDMODE
 70
     0
  9
$PDSIZE
 40
0.0
  9
$PLINEWID
 40
0.0
  9
$SPLFRAME
 70
     0
  9
$SPLINETYPE
 70
     6
  9
$SPLINESEGS
 70
     8
  9
$HANDSEED
  5
968C
  9
$SURFTAB1
 70
     6
  9
$SURFTAB2
 70
     6
  9
$SURFTYPE
 70
     6
  9
$SURFU
 70
     6
  9
$SURFV
 70
     6
  9
$UCSBASE
  2

  9
$UCSNAME
  2

  9
$UCSORG
 10
0.0
 20
0.0
 30
0.0
  9
$UCSXDIR
 10
1.0
 20
0.0
 30
0.0
  9
$UCSYDIR
 10
0.0
 20
1.0
 30
0.0
  9
$UCSORTHOREF
  2

  9
$UCSORTHOVIEW
 70
     0
  9
$UCSORGTOP
 10
0.0
 20
0.0
 30
0.0
  9
$UCSORGBOTTOM
 10
0.0
 20
0.0
 30
0.0
  9
$UCSORGLEFT
 10
0.0
 20
0.0
 30
0.0
  9
$UCSORGRIGHT
 10
0.0
 20
0.0
 30
0.0
  9
$UCSORGFRONT
 10
0.0
 20
0.0
 30
0.0
  9
$UCSORGBACK
 10
0.0
 20
0.0
 30
0.0
  9
$PUCSBASE
  2

  9
$PUCSNAME
  2

  9
$PUCSORG
 10
0.0
 20
0.0
 30
0.0
  9
$PUCSXDIR
 10
1.0
 20
0.0
 30
0.0
  9
$PUCSYDIR
 10
0.0
 20
1.0
 30
0.0
  9
$PUCSORTHOREF
  2

  9
$PUCSORTHOVIEW
 70
     0
  9
$PUCSORGTOP
 10
0.0
 20
0.0
 30
0.0
  9
$PUCSORGBOTTOM
 10
0.0
 20
0.0
 30
0.0
  9
$PUCSORGLEFT
 10
0.0
 20
0.0
 30
0.0
  9
$PUCSORGRIGHT
 10
0.0
 20
0.0
 30
0.0
  9
$PUCSORGFRONT
 10
0.0
 20
0.0
 30
0.0
  9
$PUCSORGBACK
 10
0.0
 20
0.0
 30
0.0
  9
$USERI1
 70
     0
  9
$USERI2
 70
     0
  9
$USERI3
 70
     0
  9
$USERI4
 70
     0
  9
$USERI5
 70
     0
  9
$USERR1
 40
0.0
  9
$USERR2
 40
0.0
  9
$USERR3
 40
0.0
  9
$USERR4
 40
0.0
  9
$USERR5
 40
0.0
  9
$WORLDVIEW
 70
     1
  9
$SHADEDGE
 70
     3
  9
$SHADEDIF
 70
    70
  9
$TILEMODE
 70
     1
  9
$MAXACTVP
 70
    48
  9
$PINSBASE
 10
0.0
 20
0.0
 30
0.0
  9
$PLIMCHECK
 70
     0
  9
$PEXTMIN
 10
-580.5701293945312
 20
0.0
 30
0.0
  9
$PEXTMAX
 10
0.0
 20
407.8999938964844
 30
0.0
  9
$PLIMMIN
 10
-580.5701293945312
 20
0.0
  9
$PLIMMAX
 10
0.0
 20
407.8999938964844
  9
$UNITMODE
 70
     0
  9
$VISRETAIN
 70
     1
  9
$PLINEGEN
 70
     0
  9
$PSLTSCALE
 70
     1
  9
$TREEDEPTH
 70
  3020
  9
$CMLSTYLE
  2
Standard
  9
$CMLJUST
 70
     0
  9
$CMLSCALE
 40
1.0
  9
$PROXYGRAPHICS
 70
     1
  9
$MEASUREMENT
 70
     0
  9
$CELWEIGHT
370
    -1
  9
$ENDCAPS
280
     0
  9
$JOINSTYLE
280
     0
  9
$LWDISPLAY
290
     0
  9
$INSUNITS
 70
     0
  9
$HYPERLINKBASE
  1

  9
$STYLESHEET
  1

  9
$XEDIT
290
     1
  9
$CEPSNTYPE
380
     0
  9
$PSTYLEMODE
290
     1
  9
$FINGERPRINTGUID
  2
{FD4C9254-9D55-4A63-B75A-D45E4C1A7905}
  9
$VERSIONGUID
  2
{7A6BDD5B-AF18-4C93-8F9C-6B625281ADE2}
  9
$EXTNAMES
290
     1
  9
$PSVPSCALE
 40
0.0
  9
$OLESTARTUP
290
     0
  0
ENDSEC
  0
SECTION
  2
CLASSES
  0
CLASS
  1
ACDBDICTIONARYWDFLT
  2
AcDbDictionaryWithDefault
  3
AutoCAD 2000
 90
        0
280
     0
281
     0
  0
CLASS
  1
ACDBPLACEHOLDER
  2
AcDbPlaceHolder
  3
AutoCAD 2000
 90
        0
280
     0
281
     0
  0
CLASS
  1
LAYOUT
  2
AcDbLayout
  3
AutoCAD 2000
 90
        0
280
     0
281
     0
  0
CLASS
  1
DICTIONARYVAR
  2
AcDbDictionaryVar
  3
AutoCAD 2000
 90
        0
280
     0
281
     0
  0
CLASS
  1
LONG_TRANSACTION
  2
AcDbLongTransaction
  3
AutoCAD 2000
 90
    32768
280
     0
281
     0
  0
CLASS
  1
LWPOLYLINE
  2
AcDbPolyline
  3
AutoCAD 2000
 90
    32768
280
     0
281
     1
  0
CLASS
  1
HATCH
  2
AcDbHatch
  3
AutoCAD 2000
 90
    32768
280
     0
281
     1
  0
CLASS
  1
XRECORD
  2
AcDbXrecord
  3
AutoCAD 2000
 90
    32768
280
     0
281
     0
  0
CLASS
  1
LONG_TRANSACTION
  2
AcDbLongTransaction
  3
AutoCAD 2000
 90
    32768
280
     0
281
     0
  0
CLASS
  1
LWPOLYLINE
  2
AcDbPolyline
  3
AutoCAD 2000
 90
    32768
280
     0
281
     1
  0
CLASS
  1
HATCH
  2
AcDbHatch
  3
AutoCAD 2000
 90
    32768
280
     0
281
     1
  0
CLASS
  1
XRECORD
  2
AcDbXrecord
  3
AutoCAD 2000
 90
    32768
280
     0
281
     0
  0
CLASS
  1
LONG_TRANSACTION
  2
AcDbLongTransaction
  3
AutoCAD 2000
 90
    32768
280
     0
281
     0
  0
CLASS
  1
LWPOLYLINE
  2
AcDbPolyline
  3
AutoCAD 2000
 90
    32768
280
     0
281
     1
  0
CLASS
  1
HATCH
  2
AcDbHatch
  3
AutoCAD 2000
 90
    32768
280
     0
281
     1
  0
CLASS
  1
XRECORD
  2
AcDbXrecord
  3
AutoCAD 2000
 90
    32768
280
     0
281
     0
  0
ENDSEC
  0
SECTION
  2
TABLES
  0
TABLE
  2
VPORT
  5
8C3F
330
0
100
AcDbSymbolTable
 70
     2
  0
VPORT
  5
968B
330
8C3F
100
AcDbSymbolTableRecord
100
AcDbViewportTableRecord
  2
*Active
 70
     0
 10
0.0
 20
0.0
 11
1.0
 21
1.0
 12
1136.931329282266
 22
427.925584134849
 13
0.0
 23
0.0
 14
1.0
 24
1.0
 15
0.0
 25
0.0
 16
0.0
 26
0.0
 36
1.0
 17
0.0
 27
0.0
 37
0.0
 40
1319.906200847103
 41
1.592161016949152
 42
50.0
 43
0.0
 44
0.0
 50
0.0
 51
0.0
 71
     0
 72
   100
 73
     1
 74
     3
 75
     0
 76
     0
 77
     0
 78
     0
281
     0
 65
     1
110
0.0
120
0.0
130
0.0
111
1.0
121
0.0
131
0.0
112
0.0
122
1.0
132
0.0
 79
     0
146
0.0
  0
ENDTAB
  0
TABLE
  2
LTYPE
  5
8C3C
330
0
100
AcDbSymbolTable
 70
     2
  0
LTYPE
  5
8C4A
330
8C3C
100
AcDbSymbolTableRecord
100
AcDbLinetypeTableRecord
  2
ByBlock
 70
     0
  3

 72
    65
 73
     0
 40
0.0
  0
LTYPE
  5
8C4B
330
8C3C
100
AcDbSymbolTableRecord
100
AcDbLinetypeTableRecord
  2
ByLayer
 70
     0
  3

 72
    65
 73
     0
 40
0.0
  0
LTYPE
  5
8C4C
330
8C3C
100
AcDbSymbolTableRecord
100
AcDbLinetypeTableRecord
  2
CONTINUOUS
 70
     0
  3
Solid line
 72
    65
 73
     0
 40
0.0
  0
LTYPE
  5
8D11
330
8C3C
100
AcDbSymbolTableRecord
100
AcDbLinetypeTableRecord
  2
CENTER
 70
     0
  3
Center ____ _ ____ _ ____ _ ____ _ ____ _ ____
 72
    65
 73
     4
 40
50.8
 49
31.75
 74
     0
 49
-6.349999999999999
 74
     0
 49
6.349999999999999
 74
     0
 49
-6.349999999999999
 74
     0
  0
ENDTAB
  0
TABLE
  2
LAYER
  5
8C39
102
{ACAD_XDICTIONARY
360
8D12
102
}
330
0
100
AcDbSymbolTable
 70
     2
  0
LAYER
  5
8C47
330
8C39
100
AcDbSymbolTableRecord
100
AcDbLayerTableRecord
  2
0
 70
     0
 62
     7
  6
CONTINUOUS
370
    -3
390
8C46
  0
LAYER
  5
8D29
330
8C39
100
AcDbSymbolTableRecord
100
AcDbLayerTableRecord
  2
Visible (ISO)
 70
     0
 62
     7
  6
CONTINUOUS
370
    35
390
8C46
  0
ENDTAB
  0
TABLE
  2
STYLE
  5
8C3A
330
0
100
AcDbSymbolTable
 70
     1
  0
STYLE
  5
8C48
330
8C3A
100
AcDbSymbolTableRecord
100
AcDbTextStyleTableRecord
  2
STANDARD
 70
     0
 40
0.0
 41
1.0
 50
0.0
 71
     0
 42
0.2
  3
txt
  4
BIGFONT
  0
ENDTAB
  0
TABLE
  2
VIEW
  5
8C3D
330
0
100
AcDbSymbolTable
 70
     0
  0
ENDTAB
  0
TABLE
  2
UCS
  5
8C3E
330
0
100
AcDbSymbolTable
 70
     0
  0
ENDTAB
  0
TABLE
  2
APPID
  5
8C40
330
0
100
AcDbSymbolTable
 70
     4
  0
APPID
  5
8C49
330
8C40
100
AcDbSymbolTableRecord
100
AcDbRegAppTableRecord
  2
ACAD
 70
     0
  0
APPID
  5
8C5B
330
8C40
100
AcDbSymbolTableRecord
100
AcDbRegAppTableRecord
  2
MCAD_NO_VIS
 70
     0
  0
APPID
  5
8C5C
330
8C40
100
AcDbSymbolTableRecord
100
AcDbRegAppTableRecord
  2
ACAD_TEMP_GRAPHIC
 70
     0
  0
APPID
  5
8C5D
330
8C40
100
AcDbSymbolTableRecord
100
AcDbRegAppTableRecord
  2
ACATTRIBSERVICES
 70
     0
  0
ENDTAB
  0
TABLE
  2
DIMSTYLE
  5
8C41
330
0
100
AcDbSymbolTable
 70
     1
100
AcDbDimStyleTable
 71
     0
  0
DIMSTYLE
105
8C5E
330
8C41
100
AcDbSymbolTableRecord
100
AcDbDimStyleTableRecord
  2
STANDARD
 70
     0
279
     2
340
8C48
  0
ENDTAB
  0
TABLE
  2
BLOCK_RECORD
  5
8C38
330
0
100
AcDbSymbolTable
 70
     0
  0
BLOCK_RECORD
  5
8C55
102
{ACAD_XDICTIONARY
360
8C67
102
}
330
8C38
100
AcDbSymbolTableRecord
100
AcDbBlockTableRecord
  2
*Model_Space
340
8C58
  0
BLOCK_RECORD
  5
8C51
102
{ACAD_XDICTIONARY
360
8C69
102
}
330
8C38
100
AcDbSymbolTableRecord
100
AcDbBlockTableRecord
  2
*Paper_Space
340
8C54
  0
ENDTAB
  0
ENDSEC
  0
SECTION
  2
BLOCKS
  0
BLOCK
  5
8C56
330
8C55
100
AcDbEntity
  8
0
100
AcDbBlockBegin
  2
*Model_Space
 70
     0
 10
0.0
 20
0.0
 30
0.0
  3
*Model_Space
  1

  0
ENDBLK
  5
8C57
330
8C55
100
AcDbEntity
  8
0
100
AcDbBlockEnd
  0
BLOCK
  5
8C52
330
8C51
100
AcDbEntity
 67
     1
  8
0
100
AcDbBlockBegin
  2
*Paper_Space
 70
     0
 10
0.0
 20
0.0
 30
0.0
  3
*Paper_Space
  1

  0
ENDBLK
  5
8C53
330
8C51
100
AcDbEntity
 67
     1
  8
0
100
AcDbBlockEnd
  0
ENDSEC
  0
SECTION
  2
ENTITIES
  0
TEXT
  5
1106
330
8C55
100
AcDbEntity
  8
0
100
AcDbText
 10
138.017285663513
 20
749.124740911785
 30
0.0
 40
48.000002
  1
DHS2S 2.5S
 41
1.32095
100
AcDbText
  0
CIRCLE
  5
3084
330
8C55
100
AcDbEntity
  8
0
100
AcDbCircle
 10
200.0226965287905
 20
550.1642295964662
 30
0.0
 40
100.0000076293944
  0
LINE
  5
3086
330
8C55
100
AcDbEntity
  8
0
100
AcDbLine
 10
130.0227117875797
 20
176.2247571881745
 30
0.0
 11
130.0227120065389
 21
148.4246320661013
 31
0.0
  0
LINE
  5
309A
330
8C55
100
AcDbEntity
  8
0
100
AcDbLine
 10
148.2929900801315
 20
148.4246322100015
 30
0.0
 11
161.3134322108793
 21
122.6506146870881
 31
0.0
  0
LINE
  5
30B1
330
8C55
100
AcDbEntity
  8
0
100
AcDbLine
 10
220.5187825868496
 20
625.0108324174314
 30
0.0
 11
229.1107088449184
 21
617.4667257313065
 31
0.0
  0
LINE
  5
30B2
330
8C55
100
AcDbEntity
  8
0
100
AcDbLine
 10
219.9414384627733
 20
625.5177644638044
 30
0.0
 11
229.1106358031362
 21
617.4667864720154
 31
0.0
  0
LINE
  5
30B3
330
8C55
100
AcDbEntity
  8
0
100
AcDbLine
 10
209.5227575639464
 20
568.8925315984196
 30
0.0
 11
209.5227575639464
 21
628.0872795232244
 31
0.0
  0
LINE
  5
30B4
330
8C55
100
AcDbEntity
  8
0
100
AcDbLine
 10
180.1040263063154
 20
625.5177653258632
 30
0.0
 11
170.9348890505264
 21
617.4668229729505
 31
0.0
  0
LINE
  5
30B5
330
8C55
100
AcDbEntity
  8
0
100
AcDbLine
 10
190.5227270463683
 20
568.8925315984196
 30
0.0
 11
190.5227270463683
 21
628.0872795232244
 31
0.0
  0
LINE
  5
30B8
330
8C55
100
AcDbEntity
  8
0
100
AcDbLine
 10
157.8643657606076
 20
613.7275272114455
 30
0.0
 11
166.0244729903497
 21
615.1246052444713
 31
0.0
  0
ARC
  5
30BA
330
8C55
100
AcDbEntity
  8
0
100
AcDbCircle
 10
153.0723486283996
 20
481.8508751042783
 30
0.0
 40
10.00000047683716
100
AcDbArc
 50
39.71531655176526
 51
71.28468312199649
  0
LINE
  5
30BB
330
8C55
100
AcDbEntity
  8
0
100
AcDbLine
 10
188.5536336345285
 20
532.5727894249113
 30
0.0
 11
137.2895180345535
 21
502.9754379522771
 31
0.0
  0
LINE
  5
30BD
330
8C55
100
AcDbEntity
  8
0
100
AcDbLine
 10
179.0535450937355
 20
549.0271505004364
 30
0.0
 11
127.7895484242506
 21
519.4298676923541
 31
0.0
  0
ARC
  5
30BF
330
8C55
100
AcDbEntity
  8
0
100
AcDbCircle
 10
200.0226965287905
 20
550.1642295964662
 30
0.0
 40
69.0
100
AcDbArc
 50
97.91366148605964
 51
202.0864504629677
  0
ARC
  5
30C0
330
8C55
100
AcDbEntity
  8
0
100
AcDbCircle
 10
129.7086401323055
 20
528.7591087468573
 30
0.0
 40
5.000000238418579
100
AcDbArc
 50
168.7153713679317
 51
196.9313609425021
  0
LINE
  5
30C1
330
8C55
100
AcDbEntity
  8
0
100
AcDbLine
 10
130.0226660112126
 20
520.7192680486143
 30
0.0
 11
130.0226660112126
 21
571.3771812566224
 31
0.0
  0
ARC
  5
30C2
330
8C55
100
AcDbEntity
  8
0
100
AcDbCircle
 10
200.0226965287905
 20
550.1642295964662
 30
0.0
 40
78.50000381469726
100
AcDbArc
 50
196.9313645849711
 51
223.0686407271571
  0
ARC
  5
30C7
330
8C55
100
AcDbEntity
  8
0
100
AcDbCircle
 10
146.3283911088682
 20
499.9730064519351
 30
0.0
 40
5.000000238418579
100
AcDbArc
 50
223.0686407271571
 51
251.2846849432187
  0
LINE
  5
30C8
330
8C55
100
AcDbEntity
  8
0
100
AcDbLine
 10
144.7240912827095
 20
495.2373092314143
 30
0.0
 11
156.2809587349448
 21
491.3220816632496
 31
0.0
  0
ARC
  5
30C9
330
8C55
100
AcDbEntity
  8
0
100
AcDbCircle
 10
121.4144201616027
 20
576.4661857732236
 30
0.0
 40
10.00000047683716
100
AcDbArc
 50
325.7153600271262
 51
357.2846356704629
  0
LINE
  5
30CA
330
8C55
100
AcDbEntity
  8
0
100
AcDbLine
 10
129.6769641532027
 20
570.8330830429972
 30
0.0
 11
125.0134565026902
 21
563.9926975695844
 31
0.0
  0
LINE
  5
30CB
330
8C55
100
AcDbEntity
  8
0
100
AcDbLine
 10
123.8960052804784
 20
554.8928228838365
 30
0.0
 11
126.7661456503726
 21
547.1274206863734
 31
0.0
  0
LINE
  5
30CE
330
8C55
100
AcDbEntity
  8
0
100
AcDbLine
 10
124.8052937808936
 20
529.7375298680365
 30
0.0
 11
127.1930417483996
 21
541.7037543170825
 31
0.0
  0
ARC
  5
30CF
330
8C55
100
AcDbEntity
  8
0
100
AcDbCircle
 10
117.3864660600405
 20
543.6605980046697
 30
0.0
 40
10.00000047683716
100
AcDbArc
 50
348.7153774580352
 51
20.28462364618025
  0
ARC
  5
30D0
330
8C55
100
AcDbEntity
  8
0
100
AcDbCircle
 10
133.2759008744938
 20
558.3597099431464
 30
0.0
 40
10.00000047683716
100
AcDbArc
 50
145.7153650360759
 51
200.284628655145
  0
ARC
  5
30D3
330
8C55
100
AcDbEntity
  8
0
100
AcDbCircle
 10
137.9405126908995
 20
605.0900566228331
 30
0.0
 40
10.00000047683716
100
AcDbArc
 50
302.7153502801603
 51
334.2846741617256
  0
ARC
  5
30D6
330
8C55
100
AcDbEntity
  8
0
100
AcDbCircle
 10
141.7842626908995
 20
583.7882988103331
 30
0.0
 40
10.00000047683716
100
AcDbArc
 50
122.715345043843
 51
177.2846359836576
  0
LINE
  5
30D7
330
8C55
100
AcDbEntity
  8
0
100
AcDbLine
 10
131.4032938872109
 20
575.9924478388334
 30
0.0
 11
131.7954981541548
 21
584.2619915290404
 31
0.0
  0
LINE
  5
30D8
330
8C55
100
AcDbEntity
  8
0
100
AcDbLine
 10
136.3795907752575
 20
592.201916803337
 30
0.0
 11
143.3451634003997
 21
596.6763701763843
 31
0.0
  0
LINE
  5
30D9
330
8C55
100
AcDbEntity
  8
0
100
AcDbLine
 10
146.9499797296174
 20
600.7510478224635
 30
0.0
 11
150.5421787212245
 21
608.2099795430024
 31
0.0
  0
ARC
  5
30DA
330
8C55
100
AcDbEntity
  8
0
100
AcDbCircle
 10
159.5518102983214
 20
603.8709861882635
 30
0.0
 40
10.00000047683716
100
AcDbArc
 50
99.71531822142544
 51
154.284670632936
  0
ARC
  5
30DB
330
8C55
100
AcDbEntity
  8
0
100
AcDbCircle
 10
270.3368444780096
 20
528.7591545232237
 30
0.0
 40
5.000000238418579
100
AcDbArc
 50
343.068642358909
 51
11.28468230612051
  0
LINE
  5
30DC
330
8C55
100
AcDbEntity
  8
0
100
AcDbLine
 10
211.4919320754907
 20
532.5728358867762
 30
0.0
 11
262.7561269624598
 21
502.9754386377751
 31
0.0
  0
LINE
  5
30DD
330
8C55
100
AcDbEntity
  8
0
100
AcDbLine
 10
270.0227270463682
 20
520.7194053777164
 30
0.0
 11
270.0227270463682
 21
571.3773185857244
 31
0.0
  0
LINE
  5
30DE
330
8C55
100
AcDbEntity
  8
0
100
AcDbLine
 10
220.9919331570467
 20
549.0273201366617
 30
0.0
 11
272.256128044015
 21
519.4299228876591
 31
0.0
  0
LINE
  5
30DF
330
8C55
100
AcDbEntity
  8
0
100
AcDbLine
 10
217.2958969461403
 20
478.9084784087831
 30
0.0
 11
225.5515983467617
 21
478.2899548319962
 31
0.0
  0
LINE
  5
30E0
330
8C55
100
AcDbEntity
  8
0
100
AcDbLine
 10
161.2727270463683
 20
442.1642295964662
 30
0.0
 11
238.7727575639464
 21
442.1642295964662
 31
0.0
  0
LINE
  5
30E3
330
8C55
100
AcDbEntity
  8
0
100
AcDbLine
 10
232.1660375932438
 20
480.1642448552553
 30
0.0
 11
167.8794470170714
 21
480.1642448552553
 31
0.0
  0
LINE
  5
30E4
330
8C55
100
AcDbEntity
  8
0
100
AcDbLine
 10
166.0545659354203
 20
481.8722924340165
 30
0.0
 11
160.7646072929117
 21
488.2406136093192
 31
0.0
  0
LINE
  5
30E5
330
8C55
100
AcDbEntity
  8
0
100
AcDbLine
 10
195.4386830072903
 20
474.0286679644557
 30
0.0
 11
188.0808656078164
 21
477.8238248856314
 31
0.0
  0
LINE
  5
30EB
330
8C55
100
AcDbEntity
  8
0
100
AcDbLine
 10
161.2727270463683
 20
442.1642295964662
 30
0.0
 11
161.2727270463683
 21
445.0142703280603
 31
0.0
  0
LINE
  5
30ED
330
8C55
100
AcDbEntity
  8
0
100
AcDbLine
 10
161.2727270463683
 20
445.0142703280603
 30
0.0
 11
168.2727575639464
 21
447.5620731666473
 31
0.0
  0
LINE
  5
30EE
330
8C55
100
AcDbEntity
  8
0
100
AcDbLine
 10
168.2727575639464
 20
447.5620731666473
 30
0.0
 11
168.2727575639464
 21
455.3383934148256
 31
0.0
  0
LINE
  5
30EF
330
8C55
100
AcDbEntity
  8
0
100
AcDbLine
 10
182.7495463735555
 20
478.9084493351385
 30
0.0
 11
174.4939366401882
 21
478.2899276546443
 31
0.0
  0
ARC
  5
30F0
330
8C55
100
AcDbEntity
  8
0
100
AcDbCircle
 10
173.7468786576964
 20
488.2620384343574
 30
0.0
 40
10.00000047683716
100
AcDbArc
 50
219.7153183730011
 51
274.284670784528
  0
LINE
  5
30F1
330
8C55
100
AcDbEntity
  8
0
100
AcDbLine
 10
170.2727270463682
 20
478.8848869450985
 30
0.0
 11
170.2727270463682
 21
480.1642448552553
 31
0.0
  0
ARC
  5
30F2
330
8C55
100
AcDbEntity
  8
0
100
AcDbCircle
 10
183.4966955522276
 20
468.9364463933411
 30
0.0
 40
10.00000047683716
100
AcDbArc
 50
62.7153502043735
 51
94.28467579347325
  0
LINE
  5
30F3
330
8C55
100
AcDbEntity
  8
0
100
AcDbLine
 10
211.9646135508106
 20
477.8238202155034
 30
0.0
 11
204.6068358230764
 21
474.0286862398754
 31
0.0
  0
ARC
  5
30F4
330
8C55
100
AcDbEntity
  8
0
100
AcDbCircle
 10
200.0226965287905
 20
482.9160911687311
 30
0.0
 40
10.00000047683716
100
AcDbArc
 50
242.7153520256211
 51
297.284636135244
  0
ARC
  5
30F5
330
8C55
100
AcDbEntity
  8
0
100
AcDbCircle
 10
216.5486975053526
 20
468.9364006169737
 30
0.0
 40
10.00000047683716
100
AcDbArc
 50
85.71536336642354
 51
117.2846343140194
  0
LINE
  5
30F6
330
8C55
100
AcDbEntity
  8
0
100
AcDbLine
 10
233.9909748872836
 20
481.8722342570784
 30
0.0
 11
239.2809695354697
 21
488.2405850330543
 31
0.0
  0
LINE
  5
30F9
330
8C55
100
AcDbEntity
  8
0
100
AcDbLine
 10
238.7727575639464
 20
442.1642295964662
 30
0.0
 11
238.7727575639478
 21
445.0142314142843
 31
0.0
  0
LINE
  5
30FC
330
8C55
100
AcDbEntity
  8
0
100
AcDbLine
 10
238.7727575639478
 20
445.0142314142843
 30
0.0
 11
231.7727270463683
 21
447.5620342528705
 31
0.0
  0
LINE
  5
30FD
330
8C55
100
AcDbEntity
  8
0
100
AcDbLine
 10
231.7727270463683
 20
447.5620342528705
 30
0.0
 11
231.7727270463683
 21
455.3383934148256
 31
0.0
  0
ARC
  5
30FE
330
8C55
100
AcDbEntity
  8
0
100
AcDbCircle
 10
226.2986975053526
 20
488.261992657989
 30
0.0
 40
10.00000047683716
100
AcDbArc
 50
265.7153583574784
 51
320.2846219765254
  0
LINE
  5
30FF
330
8C55
100
AcDbEntity
  8
0
100
AcDbLine
 10
229.7727575639464
 20
478.8848411687324
 30
0.0
 11
229.7727575639464
 21
480.1642448552553
 31
0.0
  0
ARC
  5
3101
330
8C55
100
AcDbEntity
  8
0
100
AcDbCircle
 10
253.7171850541815
 20
499.9730064519351
 30
0.0
 40
5.000000238418579
100
AcDbArc
 50
288.7153783497126
 51
316.9313645091731
  0
ARC
  5
3105
330
8C55
100
AcDbEntity
  8
0
100
AcDbCircle
 10
246.9733190873845
 20
481.8508751042783
 30
0.0
 40
10.00000047683716
100
AcDbArc
 50
108.7153765284613
 51
140.2846269854902
  0
LINE
  5
3106
330
8C55
100
AcDbEntity
  8
0
100
AcDbLine
 10
251.6113832287875
 20
493.9803698812903
 30
0.0
 11
243.7646148163319
 21
491.3220377030425
 31
0.0
  0
LINE
  5
3107
330
8C55
100
AcDbEntity
  8
0
100
AcDbLine
 10
255.3215214177396
 20
495.2372923766411
 30
0.0
 11
243.7646148163319
 21
491.3220377030425
 31
0.0
  0
ARC
  5
3108
330
8C55
100
AcDbEntity
  8
0
100
AcDbCircle
 10
200.0226965287905
 20
550.1642295964662
 30
0.0
 40
78.50000381469726
100
AcDbArc
 50
316.9313645091731
 51
343.068642358909
  0
CIRCLE
  5
3113
330
8C55
100
AcDbEntity
  8
0
100
AcDbCircle
 10
200.0226965287905
 20
550.1642295964662
 30
0.0
 40
21.0
  0
ARC
  5
312D
330
8C55
100
AcDbEntity
  8
0
100
AcDbCircle
 10
164.3369055131655
 20
624.9812156804503
 30
0.0
 40
10.00000047683716
100
AcDbArc
 50
279.7153200426389
 51
311.2846831977814
  0
ARC
  5
312E
330
8C55
100
AcDbEntity
  8
0
100
AcDbCircle
 10
278.6310644487115
 20
576.4661857732236
 30
0.0
 40
10.00000047683716
100
AcDbArc
 50
182.7153503559594
 51
214.2846759450593
  0
LINE
  5
3130
330
8C55
100
AcDbEntity
  8
0
100
AcDbLine
 10
276.1494412902411
 20
554.8928266015701
 30
0.0
 11
273.2792927941105
 21
547.1274274076204
 31
0.0
  0
LINE
  5
3131
330
8C55
100
AcDbEntity
  8
0
100
AcDbLine
 10
275.2402143737326
 20
529.7375775913552
 30
0.0
 11
272.8524582612266
 21
541.7037770757374
 31
0.0
  0
LINE
  5
3132
330
8C55
100
AcDbEntity
  8
0
100
AcDbLine
 10
272.8524582612266
 20
541.7037770757374
 30
0.0
 11
272.2992932838099
 21
544.4759540300293
 31
0.0
  0
LINE
  5
3133
330
8C55
100
AcDbEntity
  8
0
100
AcDbLine
 10
273.2792927941105
 20
547.1274274076204
 30
0.0
 11
272.2992742151362
 21
544.4759146048944
 31
0.0
  0
ARC
  5
3134
330
8C55
100
AcDbEntity
  8
0
100
AcDbCircle
 10
282.6591101030096
 20
543.6605980046697
 30
0.0
 40
10.00000047683716
100
AcDbArc
 50
159.7153130608864
 51
191.2846932914893
  0
LINE
  5
3135
330
8C55
100
AcDbEntity
  8
0
100
AcDbLine
 10
270.3686427169884
 20
570.8331084527144
 30
0.0
 11
275.0321032052938
 21
563.9928016311658
 31
0.0
  0
ARC
  5
3136
330
8C55
100
AcDbEntity
  8
0
100
AcDbCircle
 10
266.7695837358214
 20
558.3597099431464
 30
0.0
 40
10.00000047683716
100
AcDbArc
 50
339.715316589656
 51
34.28467412382529
  0
ARC
  5
3138
330
8C55
100
AcDbEntity
  8
0
100
AcDbCircle
 10
262.1051550248846
 20
605.0901023992003
 30
0.0
 40
10.00000047683716
100
AcDbArc
 50
205.7153566878163
 51
237.2846412957767
  0
LINE
  5
313C
330
8C55
100
AcDbEntity
  8
0
100
AcDbLine
 10
242.1812077746326
 20
613.7275573442324
 30
0.0
 11
234.0211019823803
 21
615.1246437733735
 31
0.0
  0
ARC
  5
313D
330
8C55
100
AcDbEntity
  8
0
100
AcDbCircle
 10
235.7086706498845
 20
624.9812156804503
 30
0.0
 40
10.00000047683716
100
AcDbArc
 50
228.7153766800488
 51
260.2846203068884
  0
LINE
  5
313E
330
8C55
100
AcDbEntity
  8
0
100
AcDbLine
 10
253.0955278676846
 20
600.7510470403562
 30
0.0
 11
249.5033344306516
 21
608.2099560317703
 31
0.0
  0
ARC
  5
313F
330
8C55
100
AcDbEntity
  8
0
100
AcDbCircle
 10
240.4936743119931
 20
603.8709861882635
 30
0.0
 40
10.00000047683716
100
AcDbArc
 50
25.7153599892233
 51
80.28462531582942
  0
ARC
  5
3140
330
8C55
100
AcDbEntity
  8
0
100
AcDbCircle
 10
258.2614050248845
 20
583.7882988103331
 30
0.0
 40
10.00000047683716
100
AcDbArc
 50
2.715349388502473
 51
57.28463605945933
  0
LINE
  5
3141
330
8C55
100
AcDbEntity
  8
0
100
AcDbLine
 10
268.2501135939852
 20
584.2620424223124
 30
0.0
 11
268.6423200441236
 21
575.9924071800043
 31
0.0
  0
LINE
  5
3142
330
8C55
100
AcDbEntity
  8
0
100
AcDbLine
 10
256.7004280467202
 20
596.6763776690953
 30
0.0
 11
263.6659608272011
 21
592.2019469661684
 31
0.0
  0
LINE
  5
3143
330
8C55
100
AcDbEntity
  8
0
100
AcDbLine
 10
226.0385046342595
 20
620.1642601140445
 30
0.0
 11
209.5227575639464
 21
620.1642601140445
 31
0.0
  0
LINE
  5
3144
330
8C55
100
AcDbEntity
  8
0
100
AcDbLine
 10
161.2727270463683
 20
658.1642295964663
 30
0.0
 11
238.7727575639464
 21
658.1642295964663
 31
0.0
  0
ARC
  5
3149
330
8C55
100
AcDbEntity
  8
0
100
AcDbCircle
 10
200.0226965287905
 20
550.1642295964662
 30
0.0
 40
78.50000381469726
100
AcDbArc
 50
76.93132345226259
 51
103.0686405755834
  0
LINE
  5
314A
330
8C55
100
AcDbEntity
  8
0
100
AcDbLine
 10
190.5227270463683
 20
620.1642601140445
 30
0.0
 11
174.0070715287897
 21
620.1642601140445
 31
0.0
  0
ARC
  5
314B
330
8C55
100
AcDbEntity
  8
0
100
AcDbCircle
 10
183.4031286576964
 20
621.7605735906073
 30
0.0
 40
5.000000238418579
100
AcDbArc
 50
103.0686405755834
 51
131.2846779614534
  0
LINE
  5
314C
330
8C55
100
AcDbEntity
  8
0
100
AcDbLine
 10
161.2727270463683
 20
655.3142248893683
 30
0.0
 11
168.2727575639464
 21
652.7664220507825
 31
0.0
  0
LINE
  5
314F
330
8C55
100
AcDbEntity
  8
0
100
AcDbLine
 10
168.2727575639464
 20
652.7664220507825
 30
0.0
 11
168.2727575639464
 21
644.9900657781073
 31
0.0
  0
LINE
  5
3150
330
8C55
100
AcDbEntity
  8
0
100
AcDbLine
 10
161.2727270463683
 20
658.1642295964663
 30
0.0
 11
161.2727270463683
 21
655.3142248893683
 31
0.0
  0
ARC
  5
3153
330
8C55
100
AcDbEntity
  8
0
100
AcDbCircle
 10
216.642447505353
 20
621.7605735906073
 30
0.0
 40
5.000000238418579
100
AcDbArc
 50
48.71537485881198
 51
76.93132345223721
  0
LINE
  5
3154
330
8C55
100
AcDbEntity
  8
0
100
AcDbLine
 10
238.7727575639464
 20
655.3142638031455
 30
0.0
 11
231.7727270463683
 21
652.7664609645594
 31
0.0
  0
LINE
  5
3157
330
8C55
100
AcDbEntity
  8
0
100
AcDbLine
 10
231.7727270463683
 20
652.7664609645594
 30
0.0
 11
231.7727270463683
 21
644.9900657781073
 31
0.0
  0
LINE
  5
3158
330
8C55
100
AcDbEntity
  8
0
100
AcDbLine
 10
238.7727575639464
 20
658.1642295964663
 30
0.0
 11
238.7727575639464
 21
655.3142638031455
 31
0.0
  0
LINE
  5
3164
330
8C55
100
AcDbEntity
  8
0
100
AcDbLine
 10
270.0227271337956
 20
165.124675893377
 30
0.0
 11
130.0227118750067
 21
165.1246747907109
 31
0.0
  0
LINE
  5
3169
330
8C55
100
AcDbEntity
  8
0
100
AcDbLine
 10
270.0227270463682
 20
176.2247582908379
 30
0.0
 11
270.0227272653281
 21
148.4246331687681
 31
0.0
  0
LINE
  5
316C
330
8C55
100
AcDbEntity
  8
0
100
AcDbLine
 10
270.0227270463682
 20
176.2247582908379
 30
0.0
 11
130.0227117875797
 21
176.2247571881745
 31
0.0
  0
LINE
  5
3177
330
8C55
100
AcDbEntity
  8
0
100
AcDbLine
 10
251.7524333656138
 20
148.424633024868
 30
0.0
 11
238.7319762789606
 21
122.6505872792159
 31
0.0
  0
LINE
  5
317A
330
8C55
100
AcDbEntity
  8
0
100
AcDbLine
 10
130.0227120065389
 20
148.4246320661013
 30
0.0
 11
172.7727472023816
 21
148.4246324028089
 31
0.0
  0
LINE
  5
3185
330
8C55
100
AcDbEntity
  8
0
100
AcDbLine
 10
238.7525702734444
 20
165.1246756470875
 30
0.0
 11
238.7525704049767
 21
148.4246329224781
 31
0.0
  0
LINE
  5
31A2
330
8C55
100
AcDbEntity
  8
0
100
AcDbLine
 10
161.2929145117264
 20
165.1246750370011
 30
0.0
 11
161.2929146432586
 21
148.4246323123917
 31
0.0
  0
LINE
  5
31CB
330
8C55
100
AcDbEntity
  8
0
100
AcDbLine
 10
602.4181920616588
 20
302.0846435674125
 30
0.0
 11
575.1834044552406
 21
294.7871041610752
 31
0.0
  0
LINE
  5
31CC
330
8C55
100
AcDbEntity
  8
0
100
AcDbLine
 10
621.7367673918011
 20
302.0846435674125
 30
0.0
 11
575.1036761184576
 21
289.5893443154228
 31
0.0
  0
LINE
  5
31DA
330
8C55
100
AcDbEntity
  8
0
100
AcDbLine
 10
569.1036749223467
 20
222.0846740849905
 30
0.0
 11
569.1036749223467
 21
217.3245727666301
 31
0.0
  0
LINE
  5
31DE
330
8C55
100
AcDbEntity
  8
0
100
AcDbLine
 10
533.1036749223467
 20
295.0846588262026
 30
0.0
 11
533.1036749223467
 21
222.0846740849905
 31
0.0
  0
LINE
  5
31DF
330
8C55
100
AcDbEntity
  8
0
100
AcDbLine
 10
575.1036749223457
 20
295.0846588262026
 30
0.0
 11
575.1036749223457
 21
222.0846740849905
 31
0.0
  0
LINE
  5
31E6
330
8C55
100
AcDbEntity
  8
0
100
AcDbLine
 10
486.4706767103998
 20
302.0846562475853
 30
0.0
 11
533.1036436078908
 21
289.5893903220072
 31
0.0
  0
LINE
  5
31E8
330
8C55
100
AcDbEntity
  8
0
100
AcDbLine
 10
505.7891912797686
 20
302.0846435674125
 30
0.0
 11
554.1036749223467
 21
302.0846435674125
 31
0.0
  0
LINE
  5
31F0
330
8C55
100
AcDbEntity
  8
0
100
AcDbLine
 10
454.1036444047685
 20
313.0846588262026
 30
0.0
 11
454.1036444047685
 21
302.0846435674125
 31
0.0
  0
LINE
  5
31F4
330
8C55
100
AcDbEntity
  8
0
100
AcDbLine
 10
505.7891764239346
 20
302.0846765089946
 30
0.0
 11
533.0239548735526
 21
294.7871395562155
 31
0.0
  0
LINE
  5
3204
330
8C55
100
AcDbEntity
  8
0
100
AcDbLine
 10
575.1036749223457
 20
295.0846588262026
 30
0.0
 11
533.1036749223467
 21
295.0846588262026
 31
0.0
  0
LINE
  5
323E
330
8C55
100
AcDbEntity
  8
0
100
AcDbLine
 10
533.1036596409676
 20
217.3245727666321
 30
0.0
 11
494.1033087114083
 21
210.447758441954
 31
0.0
  0
LINE
  5
3240
330
8C55
100
AcDbEntity
  8
0
100
AcDbLine
 10
484.1036444047676
 20
148.4246399053031
 30
0.0
 11
624.1036596635576
 21
148.4246399053031
 31
0.0
  0
LINE
  5
3242
330
8C55
100
AcDbEntity
  8
0
100
AcDbLine
 10
484.1036444047676
 20
176.2245361455375
 30
0.0
 11
624.1036596635576
 21
176.2245361455375
 31
0.0
  0
LINE
  5
3243
330
8C55
100
AcDbEntity
  8
0
100
AcDbLine
 10
485.1036749223466
 20
165.1245453008108
 30
0.0
 11
624.1036596635576
 21
165.1245453008108
 31
0.0
  0
LINE
  5
3245
330
8C55
100
AcDbEntity
  8
0
100
AcDbLine
 10
515.3738470414869
 20
165.1246368535461
 30
0.0
 11
515.3738470414869
 21
148.4246399053031
 31
0.0
  0
LINE
  5
3250
330
8C55
100
AcDbEntity
  8
0
100
AcDbLine
 10
494.1033087114083
 20
210.447758441954
 30
0.0
 11
494.1033087114083
 21
176.2245361455375
 31
0.0
  0
LINE
  5
325C
330
8C55
100
AcDbEntity
  8
0
100
AcDbLine
 10
451.5014910062423
 20
152.624621594755
 30
0.0
 11
484.1036444047686
 21
152.624621594756
 31
0.0
  0
LINE
  5
325E
330
8C55
100
AcDbEntity
  8
0
100
AcDbLine
 10
448.9536881676567
 20
159.6246521123342
 30
0.0
 11
451.5014910062423
 21
152.624621594755
 31
0.0
  0
LINE
  5
3260
330
8C55
100
AcDbEntity
  8
0
100
AcDbLine
 10
446.1036749223457
 20
159.6246521123342
 30
0.0
 11
448.9536881676567
 21
159.6246521123342
 31
0.0
  0
LINE
  5
3275
330
8C55
100
AcDbEntity
  8
0
100
AcDbLine
 10
575.1035028110545
 20
217.3245727666301
 30
0.0
 11
614.103995356917
 21
210.4477334711787
 31
0.0
  0
LINE
  5
3276
330
8C55
100
AcDbEntity
  8
0
100
AcDbLine
 10
533.1036749223467
 20
222.0846740849905
 30
0.0
 11
575.1036749223457
 21
222.0846740849905
 31
0.0
  0
LINE
  5
3277
330
8C55
100
AcDbEntity
  8
0
100
AcDbLine
 10
533.1036596409676
 20
217.3245727666321
 30
0.0
 11
575.1035028110545
 21
217.3245727666301
 31
0.0
  0
LINE
  5
3278
330
8C55
100
AcDbEntity
  8
0
100
AcDbLine
 10
539.1036749223457
 20
222.0846740849905
 30
0.0
 11
539.1036749223457
 21
217.3245727666301
 31
0.0
  0
LINE
  5
32A1
330
8C55
100
AcDbEntity
  8
0
100
AcDbLine
 10
614.103995356917
 20
210.4477334711787
 30
0.0
 11
614.103995356917
 21
176.2245361455375
 31
0.0
  0
LINE
  5
3322
330
8C55
100
AcDbEntity
  8
0
100
AcDbLine
 10
654.103705439924
 20
302.0846435674125
 30
0.0
 11
454.1036444047685
 21
302.0846435674125
 31
0.0
  0
LINE
  5
3323
330
8C55
100
AcDbEntity
  8
0
100
AcDbLine
 10
654.103705439924
 20
313.0846588262026
 30
0.0
 11
454.1036444047685
 21
313.0846588262026
 31
0.0
  0
LINE
  5
3327
330
8C55
100
AcDbEntity
  8
0
100
AcDbLine
 10
654.103705439924
 20
313.0846588262026
 30
0.0
 11
654.103705439924
 21
302.0846435674125
 31
0.0
  0
LINE
  5
332A
330
8C55
100
AcDbEntity
  8
0
100
AcDbLine
 10
624.1036596635576
 20
87.12463685354498
 30
0.0
 11
624.1036596635576
 21
176.2245361455375
 31
0.0
  0
LINE
  5
332D
330
8C55
100
AcDbEntity
  8
0
100
AcDbLine
 10
656.7058217916597
 20
152.624621594757
 30
0.0
 11
624.1036596635576
 21
152.624621594756
 31
0.0
  0
LINE
  5
3332
330
8C55
100
AcDbEntity
  8
0
100
AcDbLine
 10
659.2536246302446
 20
159.6246521123342
 30
0.0
 11
656.7058217916597
 21
152.624621594757
 31
0.0
  0
LINE
  5
3336
330
8C55
100
AcDbEntity
  8
0
100
AcDbLine
 10
662.1036749223467
 20
159.6246521123342
 30
0.0
 11
659.2536246302446
 21
159.6246521123342
 31
0.0
  0
LINE
  5
3341
330
8C55
100
AcDbEntity
  8
0
100
AcDbLine
 10
568.7638894505116
 20
113.4246455749039
 30
0.0
 11
580.4841044520299
 21
93.124638080993
 31
0.0
  0
LINE
  5
3343
330
8C55
100
AcDbEntity
  8
0
100
AcDbLine
 10
539.4433950841325
 20
113.4246740091899
 30
0.0
 11
527.7231800826156
 21
93.12466651527882
 31
0.0
  0
LINE
  5
3344
330
8C55
100
AcDbEntity
  8
0
100
AcDbLine
 10
446.1036749223457
 20
159.6246521123342
 30
0.0
 11
446.1036749223457
 21
82.12462159475625
 31
0.0
  0
LINE
  5
3345
330
8C55
100
AcDbEntity
  8
0
100
AcDbLine
 10
484.1036444047676
 20
87.12463685354498
 30
0.0
 11
484.1036444047676
 21
176.2245361455375
 31
0.0
  0
LINE
  5
3359
330
8C55
100
AcDbEntity
  8
0
100
AcDbLine
 10
552.4337530473466
 20
120.9246246465149
 30
0.0
 11
555.7735510209785
 21
120.9246246465149
 31
0.0
  0
ARC
  5
335A
330
8C55
100
AcDbEntity
  8
0
100
AcDbCircle
 10
552.4337530473466
 20
105.9246246465139
 30
0.0
 40
15.0
100
AcDbArc
 50
90.00000865142787
 51
149.9999966606827
  0
ARC
  5
335B
330
8C55
100
AcDbEntity
  8
0
100
AcDbCircle
 10
555.7735510209785
 20
105.9246246465139
 30
0.0
 40
15.0
100
AcDbArc
 50
30.00000333931728
 51
90.00000500895039
  0
LINE
  5
335C
330
8C55
100
AcDbEntity
  8
0
100
AcDbLine
 10
484.1036444047676
 20
87.12463685354498
 30
0.0
 11
517.3308782914869
 21
87.12463685354498
 31
0.0
  0
LINE
  5
335E
330
8C55
100
AcDbEntity
  8
0
100
AcDbLine
 10
451.5014339937464
 20
89.12465211233437
 30
0.0
 11
484.1036444047676
 21
89.12465211233529
 31
0.0
  0
LINE
  5
335F
330
8C55
100
AcDbEntity
  8
0
100
AcDbLine
 10
448.9536311551609
 20
82.12462159475625
 30
0.0
 11
451.5014339937464
 21
89.12465211233437
 31
0.0
  0
LINE
  5
3365
330
8C55
100
AcDbEntity
  8
0
100
AcDbLine
 10
446.1036749223457
 20
82.12462159475625
 30
0.0
 11
448.9536311551609
 21
82.12462159475625
 31
0.0
  0
ARC
  5
336B
330
8C55
100
AcDbEntity
  8
0
100
AcDbCircle
 10
517.3308782914869
 20
99.12463685354545
 30
0.0
 40
12.0
100
AcDbArc
 50
269.9999974955181
 51
330.0000016696449
  0
LINE
  5
336C
330
8C55
100
AcDbEntity
  8
0
100
AcDbLine
 10
590.8764257768383
 20
87.12463685354498
 30
0.0
 11
624.1036596635576
 21
87.12463685354498
 31
0.0
  0
ARC
  5
336D
330
8C55
100
AcDbEntity
  8
0
100
AcDbCircle
 10
590.8764257768383
 20
99.12463685354545
 30
0.0
 40
12.0
100
AcDbArc
 50
210.000005160536
 51
269.9999974955181
  0
LINE
  5
336F
330
8C55
100
AcDbEntity
  8
0
100
AcDbLine
 10
662.1036749223467
 20
159.6246521123342
 30
0.0
 11
662.1036749223467
 21
82.12462159475625
 31
0.0
  0
LINE
  5
3371
330
8C55
100
AcDbEntity
  8
0
100
AcDbLine
 10
656.7059275183463
 20
89.12465211233437
 30
0.0
 11
624.1036596635576
 21
89.12465211233437
 31
0.0
  0
LINE
  5
3375
330
8C55
100
AcDbEntity
  8
0
100
AcDbLine
 10
659.2537303569336
 20
82.12462159475625
 30
0.0
 11
656.7059275183463
 21
89.12465211233437
 31
0.0
  0
LINE
  5
337C
330
8C55
100
AcDbEntity
  8
0
100
AcDbLine
 10
662.1036749223467
 20
82.12462159475625
 30
0.0
 11
659.2537303569336
 21
82.12462159475625
 31
0.0
  0
CIRCLE
  5
33CA
330
8C55
100
AcDbEntity
  8
0
100
AcDbCircle
 10
200.0227071866694
 20
120.8746368535454
 30
0.0
 40
29.75000095367432
  0
CIRCLE
  5
33CB
330
8C55
100
AcDbEntity
  8
0
100
AcDbCircle
 10
200.0227071866694
 20
120.8746368535454
 30
0.0
 40
38.75000095367441
  0
LINE
  5
33CD
330
8C55
100
AcDbEntity
  8
0
100
AcDbLine
 10
592.8334227017326
 20
165.124716458405
 30
0.0
 11
592.8334570267561
 21
148.4247195101974
 31
0.0
  0
LINE
  5
33CE
330
8C55
100
AcDbEntity
  8
0
100
AcDbLine
 10
267.655834774613
 20
302.0848651613809
 30
0.0
 11
221.0227435012685
 21
289.5895659093919
 31
0.0
  0
LINE
  5
33CF
330
8C55
100
AcDbEntity
  8
0
100
AcDbLine
 10
300.0227728227354
 20
313.0848804201709
 30
0.0
 11
100.0227117875796
 21
313.0848804201709
 31
0.0
  0
LINE
  5
33D0
330
8C55
100
AcDbEntity
  8
0
100
AcDbLine
 10
300.0227728227354
 20
302.0848651613809
 30
0.0
 11
100.0227117875796
 21
302.0848651613809
 31
0.0
  0
LINE
  5
33D1
330
8C55
100
AcDbEntity
  8
0
100
AcDbLine
 10
179.022742305157
 20
295.0848804201708
 30
0.0
 11
179.022742305157
 21
222.084895678959
 31
0.0
  0
LINE
  5
33D2
330
8C55
100
AcDbEntity
  8
0
100
AcDbLine
 10
221.022742305157
 20
295.0848804201708
 30
0.0
 11
221.022742305157
 21
222.084895678959
 31
0.0
  0
LINE
  5
33D3
330
8C55
100
AcDbEntity
  8
0
100
AcDbLine
 10
132.3897440932116
 20
302.0848778415544
 30
0.0
 11
179.0227109907027
 21
289.5896119159758
 31
0.0
  0
LINE
  5
33D4
330
8C55
100
AcDbEntity
  8
0
100
AcDbLine
 10
100.0227117875796
 20
313.0848804201709
 30
0.0
 11
100.0227117875796
 21
302.0848651613809
 31
0.0
  0
LINE
  5
33D5
330
8C55
100
AcDbEntity
  8
0
100
AcDbLine
 10
221.022742305157
 20
295.0848804201708
 30
0.0
 11
179.022742305157
 21
295.0848804201708
 31
0.0
  0
LINE
  5
33D6
330
8C55
100
AcDbEntity
  8
0
100
AcDbLine
 10
151.7082438067457
 20
302.0848981029636
 30
0.0
 11
178.9430222563634
 21
294.7873611501843
 31
0.0
  0
LINE
  5
33D7
330
8C55
100
AcDbEntity
  8
0
100
AcDbLine
 10
151.7082586625797
 20
302.0848651613809
 30
0.0
 11
200.022742305157
 21
302.0848651613809
 31
0.0
  0
LINE
  5
33D8
330
8C55
100
AcDbEntity
  8
0
100
AcDbLine
 10
248.3372594444694
 20
302.0848651613809
 30
0.0
 11
221.1024718380505
 21
294.7873257550444
 31
0.0
  0
LINE
  5
33D9
330
8C55
100
AcDbEntity
  8
0
100
AcDbLine
 10
179.0227270237771
 20
217.324794360601
 30
0.0
 11
140.0223760942203
 21
210.4479800359225
 31
0.0
  0
LINE
  5
33DA
330
8C55
100
AcDbEntity
  8
0
100
AcDbLine
 10
179.022742305157
 20
222.084895678959
 30
0.0
 11
221.022742305157
 21
222.084895678959
 31
0.0
  0
LINE
  5
33DB
330
8C55
100
AcDbEntity
  8
0
100
AcDbLine
 10
179.0227270237771
 20
217.324794360601
 30
0.0
 11
221.0225701938657
 21
217.3247943605989
 31
0.0
  0
LINE
  5
33DC
330
8C55
100
AcDbEntity
  8
0
100
AcDbLine
 10
185.022742305157
 20
222.084895678959
 30
0.0
 11
185.022742305157
 21
217.3247943605989
 31
0.0
  0
LINE
  5
33DD
330
8C55
100
AcDbEntity
  8
0
100
AcDbLine
 10
215.0227423051571
 20
222.084895678959
 30
0.0
 11
215.0227423051571
 21
217.3247943605989
 31
0.0
  0
LINE
  5
33DE
330
8C55
100
AcDbEntity
  8
0
100
AcDbLine
 10
221.0225701938657
 20
217.3247943605989
 30
0.0
 11
260.0230627397284
 21
210.4479550651471
 31
0.0
  0
LINE
  5
33DF
330
8C55
100
AcDbEntity
  8
0
100
AcDbLine
 10
300.0227728227354
 20
313.0848804201709
 30
0.0
 11
300.0227728227354
 21
302.0848651613809
 31
0.0
  0
LINE
  5
33E0
330
8C55
100
AcDbEntity
  8
0
100
AcDbLine
 10
140.0223760942203
 20
210.4479800359225
 30
0.0
 11
140.0223760942203
 21
176.2247577395062
 31
0.0
  0
LINE
  5
33E1
330
8C55
100
AcDbEntity
  8
0
100
AcDbLine
 10
260.0230627397284
 20
210.4479550651471
 30
0.0
 11
260.0230627397284
 21
176.2247577395062
 31
0.0
  0
LINE
  5
33E3
330
8C55
100
AcDbEntity
  8
0
100
AcDbLine
 10
227.2726667369796
 20
148.4246328320606
 30
0.0
 11
270.0227272653281
 21
148.4246331687681
 31
0.0
  0
ARC
  5
33E5
330
8C55
100
AcDbEntity
  8
0
100
AcDbCircle
 10
200.0226965287905
 20
550.1642295964662
 30
0.0
 40
69.0
100
AcDbArc
 50
217.9137734351169
 51
322.0863326702631
  0
ARC
  5
33E6
330
8C55
100
AcDbEntity
  8
0
100
AcDbCircle
 10
200.0226965287905
 20
550.1642295964662
 30
0.0
 40
69.0
100
AcDbArc
 50
337.9137084107103
 51
82.08626176000455
  0
LINE
  5
3FA5
330
8C55
100
AcDbEntity
  8
0
100
AcDbLine
 10
451.5014910062423
 20
152.624621594755
 30
0.0
 11
451.5014339937464
 21
89.12465211233437
 31
0.0
  0
LINE
  5
3FA6
330
8C55
100
AcDbEntity
  8
0
100
AcDbLine
 10
656.7058217916597
 20
152.624621594757
 30
0.0
 11
656.7059275183463
 21
89.12465211233437
 31
0.0
  0
LINE
  5
8D1E
330
8C55
100
AcDbEntity
  8
0
  6
CENTER
100
AcDbLine
 10
309.6646203019785
 20
550.1642295964662
 30
0.0
 11
90.3807727556026
 21
550.164229596466
 31
0.0
  0
LINE
  5
8D1F
330
8C55
100
AcDbEntity
  8
0
  6
CENTER
100
AcDbLine
 10
200.0226965287905
 20
427.0563848056389
 30
0.0
 11
200.0226965287905
 21
673.2720743872935
 31
0.0
  0
LINE
  5
8D20
330
8C55
100
AcDbEntity
  8
0
  6
CENTER
100
AcDbLine
 10
260.879962762587
 20
120.8746368535454
 30
0.0
 11
139.1654516107519
 21
120.8746368535452
 31
0.0
  0
LINE
  5
8D21
330
8C55
100
AcDbEntity
  8
0
  6
CENTER
100
AcDbLine
 10
200.0227071866694
 20
58.74140774779926
 30
0.0
 11
200.0227071866694
 21
356.5046337089186
 31
0.0
  0
LINE
  5
8D22
330
8C55
100
AcDbEntity
  8
0
  6
CENTER
100
AcDbLine
 10
696.9822639614037
 20
120.8746368535452
 30
0.0
 11
411.2250401069216
 21
120.8746368535452
 31
0.0
  0
LINE
  5
8D23
330
8C55
100
AcDbEntity
  8
0
  6
CENTER
100
AcDbLine
 10
554.1036520341625
 20
96.16172020094678
 30
0.0
 11
554.1036520341625
 21
339.3109367365643
 31
0.0
  0
LINE
  5
93F7
330
8C55
100
AcDbEntity
  8
Visible (ISO)
100
AcDbLine
 10
1859.716797586542
 20
133.8607161384103
 30
0.0
 11
1769.372688138372
 21
311.1710144518953
 31
0.0
  0
LINE
  5
93F8
330
8C55
100
AcDbEntity
  8
Visible (ISO)
100
AcDbLine
 10
1849.91572582047
 20
128.8668206412745
 30
0.0
 11
1759.5716163723
 21
306.1771189547604
 31
0.0
  0
LINE
  5
93F9
330
8C55
100
AcDbEntity
  8
Visible (ISO)
100
AcDbLine
 10
1808.040425921598
 20
195.6328992918848
 30
0.0
 11
1802.819535174592
 21
205.8794743200511
 31
0.0
  0
LINE
  5
93FA
330
8C55
100
AcDbEntity
  8
Visible (ISO)
100
AcDbLine
 10
1794.193715679542
 20
222.8085982796307
 30
0.0
 11
1788.972824932537
 21
233.055173307796
 31
0.0
  0
LINE
  5
93FB
330
8C55
100
AcDbEntity
  8
Visible (ISO)
100
AcDbLine
 10
1742.996949655847
 20
162.4915928108972
 30
0.0
 11
1723.929348666785
 21
199.9138668268093
 31
0.0
  0
LINE
  5
93FC
330
8C55
100
AcDbEntity
  8
Visible (ISO)
100
AcDbLine
 10
1705.4983365297
 20
118.1327547556071
 30
0.0
 11
1666.001163052359
 21
195.6503223599953
 31
0.0
  0
LINE
  5
93FD
330
8C55
100
AcDbEntity
  8
Visible (ISO)
100
AcDbLine
 10
1706.061669605735
 20
150.4060850669681
 30
0.0
 11
1692.441954613547
 21
177.1362807926185
 31
0.0
  0
LINE
  5
93FE
330
8C55
100
AcDbEntity
  8
Visible (ISO)
100
AcDbLine
 10
1723.929348666785
 20
199.9138668268093
 30
0.0
 11
1788.972824932536
 21
233.055173307796
 31
0.0
  0
LINE
  5
93FF
330
8C55
100
AcDbEntity
  8
0
  6
CENTER
100
AcDbLine
 10
1563.973647568466
 20
94.84351533517076
 30
0.0
 11
1850.996478193104
 21
241.0889521243522
 31
0.0
  0
LINE
  5
9400
330
8C55
100
AcDbEntity
  8
Visible (ISO)
100
AcDbLine
 10
1742.996949655847
 20
162.4915928108972
 30
0.0
 11
1808.040425921597
 21
195.6328992918848
 31
0.0
  0
LINE
  5
9401
330
8C55
100
AcDbEntity
  8
Visible (ISO)
100
AcDbLine
 10
1645.151610386351
 20
185.0269446660901
 30
0.0
 11
1666.001163052359
 21
195.6503223599953
 31
0.0
  0
LINE
  5
9402
330
8C55
100
AcDbEntity
  8
Visible (ISO)
100
AcDbLine
 10
1684.648783863692
 20
107.509377061701
 30
0.0
 11
1705.4983365297
 21
118.1327547556071
 31
0.0
  0
LINE
  5
9403
330
8C55
100
AcDbEntity
  8
Visible (ISO)
100
AcDbLine
 10
1706.061669605734
 20
150.4060850669671
 30
0.0
 11
1705.498336529699
 21
118.1327547556071
 31
0.0
  0
LINE
  5
9404
330
8C55
100
AcDbEntity
  8
Visible (ISO)
100
AcDbLine
 10
1692.441954613547
 20
177.1362807926185
 30
0.0
 11
1666.001163052359
 21
195.6503223599944
 31
0.0
  0
LINE
  5
9405
330
8C55
100
AcDbEntity
  8
Visible (ISO)
100
AcDbLine
 10
1692.441954613547
 20
177.1362807926185
 30
0.0
 11
1726.653291665224
 21
194.5678276816794
 31
0.0
  0
LINE
  5
9406
330
8C55
100
AcDbEntity
  8
Visible (ISO)
100
AcDbLine
 10
1706.061669605734
 20
150.4060850669671
 30
0.0
 11
1740.273006657409
 21
167.837631956028
 31
0.0
  0
LINE
  5
9407
330
8C55
100
AcDbEntity
  8
Visible (ISO)
100
AcDbLine
 10
1759.5716163723
 20
306.1771189547604
 30
0.0
 11
1769.372688138372
 21
311.1710144518953
 31
0.0
  0
LINE
  5
9408
330
8C55
100
AcDbEntity
  8
Visible (ISO)
100
AcDbLine
 10
1849.91572582047
 20
128.8668206412745
 30
0.0
 11
1859.716797586542
 21
133.8607161384094
 31
0.0
  0
LINE
  5
9409
330
8C55
100
AcDbEntity
  8
Visible (ISO)
100
AcDbLine
 10
1792.406566877954
 20
226.3160752925238
 30
0.0
 11
1788.152789352527
 21
250.0834086041037
 31
0.0
  0
LINE
  5
940A
330
8C55
100
AcDbEntity
  8
Visible (ISO)
100
AcDbLine
 10
1783.839879605001
 20
258.5479705838939
 30
0.0
 11
1788.450138616033
 21
232.7888513274361
 31
0.0
  0
LINE
  5
940B
330
8C55
100
AcDbEntity
  8
Visible (ISO)
100
AcDbLine
 10
1783.844352949909
 20
230.4420863156289
 30
0.0
 11
1776.092865127634
 21
273.7523425834757
 31
0.0
  0
LINE
  5
940C
330
8C55
100
AcDbEntity
  8
Visible (ISO)
100
AcDbLine
 10
1807.517739605094
 20
195.3665773115241
 30
0.0
 11
1825.647462587767
 21
176.4959690121382
 31
0.0
  0
LINE
  5
940D
330
8C55
100
AcDbEntity
  8
Visible (ISO)
100
AcDbLine
 10
1821.334552840241
 20
184.9605309919285
 30
0.0
 11
1804.606683976178
 21
202.3719973071562
 31
0.0
  0
LINE
  5
940E
330
8C55
100
AcDbEntity
  8
Visible (ISO)
100
AcDbLine
 10
1833.394477065135
 20
161.2915970125565
 30
0.0
 11
1802.911953938971
 21
193.0198122997177
 31
0.0
  0
ELLIPSE
  5
940F
330
8C55
100
AcDbEntity
  8
Visible (ISO)
100
AcDbEllipse
 10
1788.992144768008
 20
209.4961662653273
 30
0.0
 11
-9.53380049453044
 21
18.71113700795571
 31
0.0
210
0.0
220
0.0
230
0.9999999999999998
 40
0.2623408182435604
 41
4.242955689976606
 42
5.18182227079283
  0
LINE
  5
9410
330
8C55
100
AcDbEntity
  8
Visible (ISO)
100
AcDbLine
 10
1800.430761348858
 20
225.9865317778063
 30
0.0
 11
1789.056930950892
 21
220.1912757318101
 31
0.0
  0
LINE
  5
9411
330
8C55
100
AcDbEntity
  8
Visible (ISO)
100
AcDbLine
 10
1797.682750445945
 20
203.2621517722306
 30
0.0
 11
1809.056580843909
 21
209.0574078182277
 31
0.0
  0
LINE
  5
9412
330
8C55
100
AcDbEntity
  8
Visible (ISO)
100
AcDbLine
 10
1606.268842763529
 20
166.1824966556711
 30
0.0
 11
1598.940139226452
 21
156.0954016067467
 31
0.0
  0
LINE
  5
9413
330
8C55
100
AcDbEntity
  8
Visible (ISO)
100
AcDbLine
 10
1634.080252620662
 20
87.12904589462288
 30
0.0
 11
1646.548587796637
 21
87.12904589462288
 31
0.0
  0
LINE
  5
9414
330
8C55
100
AcDbEntity
  8
Visible (ISO)
100
AcDbLine
 10
1624.323923864422
 20
162.6863991457963
 30
0.0
 11
1617.801912462255
 21
159.3632683544989
 31
0.0
  0
LINE
  5
9415
330
8C55
100
AcDbEntity
  8
Visible (ISO)
100
AcDbLine
 10
1647.810684495037
 20
100.4677371056465
 30
0.0
 11
1654.332695897206
 21
103.7908678969448
 31
0.0
  0
LINE
  5
9416
330
8C55
100
AcDbEntity
  8
Visible (ISO)
100
AcDbLine
 10
1621.745333432538
 20
167.7471678168072
 30
0.0
 11
1624.323923864422
 21
162.6863991457963
 31
0.0
  0
LINE
  5
9417
330
8C55
100
AcDbEntity
  8
Visible (ISO)
100
AcDbLine
 10
1621.745333432538
 20
167.7471678168072
 30
0.0
 11
1607.548974899046
 21
195.6090902145557
 31
0.0
  0
LINE
  5
9418
330
8C55
100
AcDbEntity
  8
Visible (ISO)
100
AcDbLine
 10
1671.107644862583
 20
70.86817682818457
 30
0.0
 11
1656.911286329091
 21
98.73009922593304
 31
0.0
  0
LINE
  5
9419
330
8C55
100
AcDbEntity
  8
Visible (ISO)
100
AcDbLine
 10
1654.332695897206
 20
103.7908678969448
 30
0.0
 11
1656.911286329091
 21
98.73009922593395
 31
0.0
  0
LINE
  5
941A
330
8C55
100
AcDbEntity
  8
Visible (ISO)
100
AcDbLine
 10
1622.428783852992
 20
203.1907315602062
 30
0.0
 11
1636.625142386483
 21
175.3288091624577
 31
0.0
  0
LINE
  5
941B
330
8C55
100
AcDbEntity
  8
Visible (ISO)
100
AcDbLine
 10
1671.791095283037
 20
106.3117405715844
 30
0.0
 11
1636.625142386483
 21
175.3288091624577
 31
0.0
  0
LINE
  5
941C
330
8C55
100
AcDbEntity
  8
Visible (ISO)
100
AcDbLine
 10
1671.791095283037
 20
106.3117405715835
 30
0.0
 11
1685.987453816529
 21
78.44981817383507
 31
0.0
  0
LINE
  5
941D
330
8C55
100
AcDbEntity
  8
Visible (ISO)
100
AcDbLine
 10
1636.625142386483
 20
175.3288091624577
 30
0.0
 11
1621.745333432538
 21
167.7471678168072
 31
0.0
  0
LINE
  5
941E
330
8C55
100
AcDbEntity
  8
Visible (ISO)
100
AcDbLine
 10
1622.428783852992
 20
203.1907315602062
 30
0.0
 11
1607.548974899046
 21
195.6090902145557
 31
0.0
  0
LINE
  5
941F
330
8C55
100
AcDbEntity
  8
Visible (ISO)
100
AcDbLine
 10
1671.791095283037
 20
106.3117405715844
 30
0.0
 11
1656.911286329091
 21
98.73009922593395
 31
0.0
  0
LINE
  5
9420
330
8C55
100
AcDbEntity
  8
Visible (ISO)
100
AcDbLine
 10
1685.987453816529
 20
78.44981817383507
 30
0.0
 11
1671.107644862583
 21
70.86817682818457
 31
0.0
  0
LINE
  5
9421
330
8C55
100
AcDbEntity
  8
Visible (ISO)
100
AcDbLine
 10
1575.395500020786
 20
123.6889858800501
 30
0.0
 11
1576.252601294609
 21
124.8686845773542
 31
0.0
  0
LINE
  5
9422
330
8C55
100
AcDbEntity
  8
Visible (ISO)
100
AcDbLine
 10
1595.481907658186
 20
87.12904589462288
 30
0.0
 11
1594.02371987535
 21
87.12904589462288
 31
0.0
  0
LINE
  5
9423
330
8C55
100
AcDbEntity
  8
Visible (ISO)
100
AcDbLine
 10
1594.02371987535
 20
87.12904589462288
 30
0.0
 11
1593.353331543654
 21
88.44475707717776
 31
0.0
  0
LINE
  5
9424
330
8C55
100
AcDbEntity
  8
Visible (ISO)
100
AcDbLine
 10
1576.065888352482
 20
122.3732746974952
 30
0.0
 11
1575.395500020786
 21
123.6889858800501
 31
0.0
  0
LINE
  5
9425
330
8C55
100
AcDbEntity
  8
Visible (ISO)
100
AcDbLine
 10
1598.326194713182
 20
181.7708211608129
 30
0.0
 11
1606.498023708494
 21
165.7327037254223
 31
0.0
  0
LINE
  5
9426
330
8C55
100
AcDbEntity
  8
Visible (ISO)
100
AcDbLine
 10
1598.326194713182
 20
181.7708211608129
 30
0.0
 11
1611.245789313913
 21
188.3536834070361
 31
0.0
  0
LINE
  5
9427
330
8C55
100
AcDbEntity
  8
Visible (ISO)
100
AcDbLine
 10
1606.498023708494
 20
165.7327037254223
 30
0.0
 11
1619.417618309225
 21
172.3155659716454
 31
0.0
  0
LINE
  5
9428
330
8C55
100
AcDbEntity
  8
Visible (ISO)
100
AcDbLine
 10
1654.491235846985
 20
71.54072138948198
 30
0.0
 11
1646.319406851674
 21
87.57883882487169
 31
0.0
  0
LINE
  5
9429
330
8C55
100
AcDbEntity
  8
Visible (ISO)
100
AcDbLine
 10
1667.410830447717
 20
78.12358363570422
 30
0.0
 11
1654.491235846984
 21
71.54072138948106
 31
0.0
  0
LINE
  5
942A
330
8C55
100
AcDbEntity
  8
Visible (ISO)
100
AcDbLine
 10
1659.239001452404
 20
94.16170107109484
 30
0.0
 11
1646.319406851673
 21
87.57883882487169
 31
0.0
  0
CIRCLE
  5
942B
330
8C55
100
AcDbEntity
  8
Visible (ISO)
100
AcDbCircle
 10
1614.781080139424
 20
120.7311952535461
 30
0.0
 40
38.74999999999996
  0
CIRCLE
  5
942C
330
8C55
100
AcDbEntity
  8
Visible (ISO)
100
AcDbCircle
 10
1614.781080139424
 20
120.7311952535461
 30
0.0
 40
29.74999999999997
  0
LINE
  5
942D
330
8C55
100
AcDbEntity
  8
Visible (ISO)
100
AcDbLine
 10
1695.788525582601
 20
83.44371367096995
 30
0.0
 11
1681.592167049108
 21
111.3056360687193
 31
0.0
  0
SPLINE
  5
942E
330
8C55
100
AcDbEntity
  8
Visible (ISO)
100
AcDbSpline
210
0.0
220
0.0
230
1.0
 70
    24
 71
     3
 72
     8
 73
     4
 74
     0
 42
0.0000000001
 43
0.0000000001
 40
-0.1437727769607307
 40
-0.1437727769607307
 40
-0.1437727769607307
 40
-0.1437727769607307
 40
0.0
 40
0.0
 40
0.0
 40
0.0
 10
1695.788525582601
 20
83.44371367096995
 30
0.0
 10
1695.934211488856
 20
83.89208878625199
 30
0.0
 10
1696.079887440375
 20
84.34043326400354
 30
0.0
 10
1696.225541607049
 20
84.788710694898
 30
0.0
  0
LINE
  5
942F
330
8C55
100
AcDbEntity
  8
Visible (ISO)
100
AcDbLine
 10
1682.365560370701
 20
111.9904554754599
 30
0.0
 11
1696.225541607049
 21
84.78871069489798
 31
0.0
  0
SPLINE
  5
9430
330
8C55
100
AcDbEntity
  8
Visible (ISO)
100
AcDbSpline
210
0.0
220
0.0
230
1.0
 70
     8
 71
     3
 72
     8
 73
     4
 74
     0
 42
0.0000000001
 43
0.0000000001
 40
-0.143772776960857
 40
-0.143772776960857
 40
-0.143772776960857
 40
-0.143772776960857
 40
0.0
 40
0.0
 40
0.0
 40
0.0
 10
1681.592167049108
 20
111.3056360687193
 30
0.0
 10
1681.850120551022
 20
111.5336736213327
 30
0.0
 10
1682.107926157817
 20
111.7619512596626
 30
0.0
 10
1682.365560370701
 20
111.9904554754599
 30
0.0
  0
SPLINE
  5
9431
330
8C55
100
AcDbEntity
  8
Visible (ISO)
100
AcDbSpline
210
0.0
220
0.0
230
1.0
 70
    24
 71
     3
 72
     8
 73
     4
 74
     0
 42
0.0000000001
 43
0.0000000001
 40
-0.143772776960857
 40
-0.143772776960857
 40
-0.143772776960857
 40
-0.143772776960857
 40
0.0
 40
0.0
 40
0.0
 40
0.0
 10
1632.229855619065
 20
208.1846270573411
 30
0.0
 10
1632.678230734344
 20
208.0389411510865
 30
0.0
 10
1633.126575212098
 20
207.893265199567
 30
0.0
 10
1633.574852642992
 20
207.7476110328931
 30
0.0
  0
LINE
  5
9432
330
8C55
100
AcDbEntity
  8
Visible (ISO)
100
AcDbLine
 10
1646.426214152556
 20
180.3227046595935
 30
0.0
 11
1632.229855619064
 21
208.184627057342
 31
0.0
  0
SPLINE
  5
9433
330
8C55
100
AcDbEntity
  8
Visible (ISO)
100
AcDbSpline
210
0.0
220
0.0
230
1.0
 70
     8
 71
     3
 72
     8
 73
     4
 74
     0
 42
0.0000000001
 43
0.0000000001
 40
-0.1437727769607307
 40
-0.1437727769607307
 40
-0.1437727769607307
 40
-0.1437727769607307
 40
0.0
 40
0.0
 40
0.0
 40
0.0
 10
1646.426214152556
 20
180.3227046595935
 30
0.0
 10
1646.762321672178
 20
180.397356316004
 30
0.0
 10
1647.098536494655
 20
180.4717472039088
 30
0.0
 10
1647.434833879341
 20
180.5458662523311
 30
0.0
  0
LINE
  5
9434
330
8C55
100
AcDbEntity
  8
Visible (ISO)
100
AcDbLine
 10
1633.574852642992
 20
207.7476110328931
 30
0.0
 11
1647.434833879341
 21
180.5458662523311
 31
0.0
  0
LINE
  5
9435
330
8C55
100
AcDbEntity
  8
Visible (ISO)
100
AcDbLine
 10
1646.426214152556
 20
180.3227046595926
 30
0.0
 11
1681.592167049108
 21
111.3056360687193
 31
0.0
  0
LINE
  5
9436
330
8C55
100
AcDbEntity
  8
Visible (ISO)
100
AcDbLine
 10
1682.365560370701
 20
111.9904554754599
 30
0.0
 11
1647.434833879341
 21
180.5458662523311
 31
0.0
  0
LINE
  5
9437
330
8C55
100
AcDbEntity
  8
Visible (ISO)
100
AcDbLine
 10
1623.319790377181
 20
203.6447220599462
 30
0.0
 11
1637.516148910672
 21
175.7827996621978
 31
0.0
  0
SPLINE
  5
9438
330
8C55
100
AcDbEntity
  8
Visible (ISO)
100
AcDbSpline
210
0.0
220
0.0
230
1.0
 70
    24
 71
     3
 72
     8
 73
     4
 74
     0
 42
0.0000000001
 43
0.0000000001
 40
-0.1437727732845577
 40
-0.1437727732845577
 40
-0.1437727732845577
 40
-0.1437727732845577
 40
0.0
 40
0.0
 40
0.0
 40
0.0
 10
1685.533463316789
 20
79.34082469802401
 30
0.0
 10
1685.981740747681
 20
79.19517053135009
 30
0.0
 10
1686.430085225432
 20
79.04949457983152
 30
0.0
 10
1686.878460340717
 20
78.90380867357511
 30
0.0
  0
SPLINE
  5
9439
330
8C55
100
AcDbEntity
  8
Visible (ISO)
100
AcDbSpline
210
0.0
220
0.0
230
1.0
 70
    24
 71
     3
 72
     8
 73
     4
 74
     0
 42
0.0000000001
 43
0.0000000001
 40
-0.1437727732828385
 40
-0.1437727732828385
 40
-0.1437727732828385
 40
-0.1437727732828385
 40
0.0
 40
0.0
 40
0.0
 40
0.0
 10
1622.882774352732
 20
202.2997250360182
 30
0.0
 10
1623.028428519406
 20
202.7480024669135
 30
0.0
 10
1623.174104470925
 20
203.196346944666
 30
0.0
 10
1623.31979037718
 20
203.6447220599462
 30
0.0
  0
SPLINE
  5
943A
330
8C55
100
AcDbEntity
  8
Visible (ISO)
100
AcDbSpline
210
0.0
220
0.0
230
1.0
 70
     8
 71
     3
 72
     8
 73
     4
 74
     0
 42
0.0000000001
 43
0.0000000001
 40
-0.1437727732845577
 40
-0.1437727732845577
 40
-0.1437727732845577
 40
-0.1437727732845577
 40
0.0
 40
0.0
 40
0.0
 40
0.0
 10
1636.74275558908
 20
175.0979802554571
 30
0.0
 10
1637.000389801962
 20
175.3264844712527
 30
0.0
 10
1637.258195408755
 20
175.5547621095816
 30
0.0
 10
1637.516148910672
 20
175.7827996621978
 30
0.0
  0
SPLINE
  5
943B
330
8C55
100
AcDbEntity
  8
Visible (ISO)
100
AcDbSpline
210
0.0
220
0.0
230
1.0
 70
     8
 71
     3
 72
     8
 73
     4
 74
     0
 42
0.0000000001
 43
0.0000000001
 40
-0.1437727732828385
 40
-0.1437727732828385
 40
-0.1437727732828385
 40
-0.1437727732828385
 40
0.0
 40
0.0
 40
0.0
 40
0.0
 10
1671.673482080441
 20
106.542569478585
 30
0.0
 10
1672.009779465125
 20
106.6166885270091
 30
0.0
 10
1672.345994287603
 20
106.6910794149122
 30
0.0
 10
1672.682101807225
 20
106.7657310713226
 30
0.0
  0
LINE
  5
943C
330
8C55
100
AcDbEntity
  8
Visible (ISO)
100
AcDbLine
 10
1672.682101807225
 20
106.7657310713226
 30
0.0
 11
1637.516148910672
 21
175.7827996621978
 31
0.0
  0
LINE
  5
943D
330
8C55
100
AcDbEntity
  8
Visible (ISO)
100
AcDbLine
 10
1672.682101807225
 20
106.7657310713226
 30
0.0
 11
1686.878460340717
 21
78.9038086735751
 31
0.0
  0
LINE
  5
943E
330
8C55
100
AcDbEntity
  8
Visible (ISO)
100
AcDbLine
 10
1632.229855619065
 20
208.1846270573411
 30
0.0
 11
1623.31979037718
 21
203.6447220599462
 31
0.0
  0
LINE
  5
943F
330
8C55
100
AcDbEntity
  8
Visible (ISO)
100
AcDbLine
 10
1646.426214152556
 20
180.3227046595926
 30
0.0
 11
1637.516148910672
 21
175.7827996621969
 31
0.0
  0
LINE
  5
9440
330
8C55
100
AcDbEntity
  8
Visible (ISO)
100
AcDbLine
 10
1681.592167049108
 20
111.3056360687193
 30
0.0
 11
1672.682101807225
 21
106.7657310713226
 31
0.0
  0
LINE
  5
9441
330
8C55
100
AcDbEntity
  8
Visible (ISO)
100
AcDbLine
 10
1695.788525582601
 20
83.44371367096995
 30
0.0
 11
1686.878460340717
 21
78.9038086735751
 31
0.0
  0
ELLIPSE
  5
9442
330
8C55
100
AcDbEntity
  8
Visible (ISO)
100
AcDbEllipse
 10
1808.060529859239
 20
483.1697947631543
 30
0.0
 11
0.0000000000013257
 21
-10.00000000000021
 31
0.0
210
0.0
220
0.0
230
1.0
 40
0.4539904997395467
 41
5.562631902045662
 42
6.073137493983266
  0
ELLIPSE
  5
9443
330
8C55
100
AcDbEntity
  8
Visible (ISO)
100
AcDbEllipse
 10
1798.34369718054
 20
475.3472485260096
 30
0.0
 11
-0.000000000001325
 21
9.999999999999753
 31
0.0
210
0.0
220
0.0
230
1.0
 40
0.4539904997395468
 41
5.562631902045732
 42
6.11362079379574
  0
ELLIPSE
  5
9444
330
8C55
100
AcDbEntity
  8
Visible (ISO)
100
AcDbEllipse
 10
1796.171327172673
 20
496.4574974908479
 30
0.0
 11
0.0000000000013253
 21
-9.999999999999985
 31
0.0
210
0.0
220
0.0
230
1.0
 40
0.4539904997395466
 41
5.161206174086991
 42
6.113620793795752
  0
ELLIPSE
  5
9445
330
8C55
100
AcDbEntity
  8
Visible (ISO)
100
AcDbEllipse
 10
1786.359950562018
 20
495.2384154226225
 30
0.0
 11
0.0000000000008563
 21
-10.00000000000003
 31
0.0
210
0.0
220
0.0
230
1.0
 40
0.4539904997395467
 41
2.01961352049757
 42
2.570602412247879
  0
ELLIPSE
  5
9446
330
8C55
100
AcDbEntity
  8
Visible (ISO)
100
AcDbEllipse
 10
1788.104982919962
 20
516.5401724202407
 30
0.0
 11
0.0000000000013257
 21
-9.999999999999946
 31
0.0
210
0.0
220
0.0
230
1.0
 40
0.4539904997395468
 41
4.759780446128271
 42
5.712195065837026
  0
ELLIPSE
  5
9447
330
8C55
100
AcDbEntity
  8
Visible (ISO)
100
AcDbEllipse
 10
1778.857312332339
 20
523.8622536132266
 30
0.0
 11
0.0000000000008556
 21
-10.00000000000012
 31
0.0
210
0.0
220
0.0
230
1.0
 40
0.4539904997395469
 41
1.61818779253857
 42
2.169176684288832
  0
ELLIPSE
  5
9448
330
8C55
100
AcDbEntity
  8
Visible (ISO)
100
AcDbEllipse
 10
1784.242303850044
 20
541.9687460551337
 30
0.0
 11
0.0000000000013255
 21
-9.999999999999991
 31
0.0
210
0.0
220
0.0
230
1.0
 40
0.4539904997395467
 41
4.358354718169607
 42
5.310769337878362
  0
ELLIPSE
  5
9449
330
8C55
100
AcDbEntity
  8
Visible (ISO)
100
AcDbEllipse
 10
1777.028629142624
 20
556.6678506743916
 30
0.0
 11
0.0000000000013257
 21
-9.999999999999946
 31
0.0
210
0.0
220
0.0
230
1.0
 40
0.4539904997395469
 41
1.216762064579814
 42
1.767750956329862
  0
ELLIPSE
  5
944A
330
8C55
100
AcDbEntity
  8
Visible (ISO)
100
AcDbEllipse
 10
1784.962614910932
 20
571.2922604586553
 30
0.0
 11
0.0000000000013255
 21
-9.9999999999999
 31
0.0
210
0.0
220
0.0
230
1.0
 40
0.4539904997395468
 41
4.39883801798205
 42
4.909343609919656
  0
ELLIPSE
  5
944B
330
8C55
100
AcDbEntity
  8
Visible (ISO)
100
AcDbEllipse
 10
1791.446827915218
 20
596.0306335677056
 30
0.0
 11
-0.0000000000013255
 21
9.999999999999943
 31
0.0
210
0.0
220
0.0
230
1.0
 40
0.4539904997395468
 41
0.3266441460627582
 42
0.8371497380003461
  0
ELLIPSE
  5
944C
330
8C55
100
AcDbEntity
  8
Visible (ISO)
100
AcDbEllipse
 10
1793.229674825611
 20
618.477589589124
 30
0.0
 11
0.0000000000013267
 21
-9.999999999999985
 31
0.0
210
0.0
220
0.0
230
1.0
 40
0.4539904997395469
 41
0.3266441460627583
 42
0.8776330378127168
  0
ELLIPSE
  5
944D
330
8C55
100
AcDbEntity
  8
Visible (ISO)
100
AcDbEllipse
 10
1802.615719540898
 20
612.0664452435345
 30
0.0
 11
-0.000000000001325
 21
9.999999999999927
 31
0.0
210
0.0
220
0.0
230
1.0
 40
0.4539904997395468
 41
6.208403725283581
 42
7.160818344992358
  0
ELLIPSE
  5
944E
330
8C55
100
AcDbEntity
  8
Visible (ISO)
100
AcDbEllipse
 10
1807.042104633847
 20
631.3920197536742
 30
0.0
 11
0.0000000000013253
 21
-9.999999999999978
 31
0.0
210
0.0
220
0.0
230
1.0
 40
0.4539904997395469
 41
6.208403725283586
 42
6.759392617033524
  0
ELLIPSE
  5
944F
330
8C55
100
AcDbEntity
  8
Visible (ISO)
100
AcDbEllipse
 10
1814.544742863527
 20
617.4123439490291
 30
0.0
 11
-0.000000000001325
 21
9.999999999999969
 31
0.0
210
0.0
220
0.0
230
1.0
 40
0.4539904997395469
 41
5.806977997324858
 42
6.759392617033664
  0
ELLIPSE
  5
9450
330
8C55
100
AcDbEntity
  8
Visible (ISO)
100
AcDbEllipse
 10
1822.047381093208
 20
631.3920197536641
 30
0.0
 11
0.0000000000013255
 21
-9.999999999999978
 31
0.0
210
0.0
220
0.0
230
1.0
 40
0.4539904997395468
 41
5.806977997324858
 42
6.357966889074848
  0
ELLIPSE
  5
9451
330
8C55
100
AcDbEntity
  8
Visible (ISO)
100
AcDbEllipse
 10
1826.473766186156
 20
612.0664452435208
 30
0.0
 11
-0.0000000000013246
 21
9.999999999999952
 31
0.0
210
0.0
220
0.0
230
1.0
 40
0.4539904997395467
 41
5.405552269366286
 42
6.357966889075004
  0
ELLIPSE
  5
9452
330
8C55
100
AcDbEntity
  8
Visible (ISO)
100
AcDbEllipse
 10
1835.859810901443
 20
618.4775895890985
 30
0.0
 11
0.000000000001325
 21
-10.00000000000015
 31
0.0
210
0.0
220
0.0
230
1.0
 40
0.4539904997395468
 41
5.405552269366133
 42
5.956541161116224
  0
ELLIPSE
  5
9453
330
8C55
100
AcDbEntity
  8
Visible (ISO)
100
AcDbEllipse
 10
1837.642657811836
 20
596.0306335676783
 30
0.0
 11
-0.0000000000013246
 21
10.00000000000005
 31
0.0
210
0.0
220
0.0
230
1.0
 40
0.4539904997395468
 41
5.4460355691787
 42
5.956541161116224
  0
ELLIPSE
  5
9454
330
8C55
100
AcDbEntity
  8
Visible (ISO)
100
AcDbEllipse
 10
1844.126870816121
 20
571.2922604586207
 30
0.0
 11
-0.0000000000013258
 21
9.999999999999946
 31
0.0
210
0.0
220
0.0
230
1.0
 40
0.4539904997395467
 41
4.515434350849066
 42
5.025939942786739
  0
ELLIPSE
  5
9455
330
8C55
100
AcDbEntity
  8
Visible (ISO)
100
AcDbEllipse
 10
1852.060856584428
 20
556.6678506743461
 30
0.0
 11
-0.0000000000013257
 21
9.999999999999838
 31
0.0
210
0.0
220
0.0
230
1.0
 40
0.4539904997395467
 41
1.373841697259273
 42
1.924830589009335
  0
ELLIPSE
  5
9456
330
8C55
100
AcDbEntity
  8
Visible (ISO)
100
AcDbEllipse
 10
1844.847181877007
 20
541.9687460550973
 30
0.0
 11
-0.0000000000017961
 21
10.0
 31
0.0
210
0.0
220
0.0
230
1.0
 40
0.4539904997395468
 41
4.114008622890075
 42
5.066423242598982
  0
ELLIPSE
  5
9457
330
8C55
100
AcDbEntity
  8
Visible (ISO)
100
AcDbEllipse
 10
1850.232173394712
 20
523.8622536131839
 30
0.0
 11
-0.0000000000013252
 21
9.999999999999911
 31
0.0
210
0.0
220
0.0
230
1.0
 40
0.4539904997395467
 41
0.972415969300604
 42
1.523404861050625
  0
ELLIPSE
  5
9458
330
8C55
100
AcDbEntity
  8
Visible (ISO)
100
AcDbEllipse
 10
1840.984502807088
 20
516.5401724202089
 30
0.0
 11
-0.0000000000017944
 21
9.999999999999966
 31
0.0
210
0.0
220
0.0
230
1.0
 40
0.4539904997395467
 41
3.712582894931141
 42
4.664997514640112
  0
ELLIPSE
  5
9459
330
8C55
100
AcDbEntity
  8
Visible (ISO)
100
AcDbEllipse
 10
1842.729535165031
 20
495.238415422588
 30
0.0
 11
-0.0000000000013253
 21
10.00000000000009
 31
0.0
210
0.0
220
0.0
230
1.0
 40
0.4539904997395469
 41
0.57099024134188
 42
1.121979133092002
  0
ELLIPSE
  5
945A
330
8C55
100
AcDbEntity
  8
Visible (ISO)
100
AcDbEllipse
 10
1832.918158554377
 20
496.457497490826
 30
0.0
 11
0.0000000000013264
 21
-9.999999999999939
 31
0.0
210
0.0
220
0.0
230
1.0
 40
0.4539904997395468
 41
0.1695645133832505
 42
1.121979133092002
  0
ELLIPSE
  5
945B
330
8C55
100
AcDbEntity
  8
Visible (ISO)
100
AcDbEllipse
 10
1830.74578854651
 20
475.3472485259904
 30
0.0
 11
-0.0000000000013257
 21
9.999999999999872
 31
0.0
210
0.0
220
0.0
230
1.0
 40
0.4539904997395467
 41
0.1695645133832508
 42
0.7205534051331668
  0
ELLIPSE
  5
945C
330
8C55
100
AcDbEntity
  8
Visible (ISO)
100
AcDbEllipse
 10
1821.028955867811
 20
483.169794763147
 30
0.0
 11
0.0000000000013253
 21
-9.999999999999928
 31
0.0
210
0.0
220
0.0
230
1.0
 40
0.453990499739547
 41
0.2100478131957405
 42
0.7205534051333304
  0
ELLIPSE
  5
945D
330
8C55
100
AcDbEntity
  8
Visible (ISO)
100
AcDbEllipse
 10
1820.944716780438
 20
475.3472485259886
 30
0.0
 11
-0.0000000000013253
 21
9.999999999999864
 31
0.0
210
0.0
220
0.0
230
1.0
 40
0.4539904997395467
 41
0.1695645133832513
 42
0.7205534051332841
  0
ELLIPSE
  5
945E
330
8C55
100
AcDbEntity
  8
Visible (ISO)
100
AcDbEllipse
 10
1823.117086788306
 20
496.4574974908242
 30
0.0
 11
0.0000000000013253
 21
-9.999999999999936
 31
0.0
210
0.0
220
0.0
230
1.0
 40
0.4539904997395469
 41
0.1695645133832508
 42
1.121979133092002
  0
ELLIPSE
  5
945F
330
8C55
100
AcDbEntity
  8
Visible (ISO)
100
AcDbEllipse
 10
1832.92846339896
 20
495.238415422587
 30
0.0
 11
0.0000000000017961
 21
-10.00000000000009
 31
0.0
210
0.0
220
0.0
230
1.0
 40
0.4539904997395468
 41
3.712582894931141
 42
4.263571786681358
  0
ELLIPSE
  5
9460
330
8C55
100
AcDbEntity
  8
Visible (ISO)
100
AcDbEllipse
 10
1831.183431041017
 20
516.540172420208
 30
0.0
 11
0.0000000000013254
 21
-9.999999999999964
 31
0.0
210
0.0
220
0.0
230
1.0
 40
0.4539904997395468
 41
0.57099024134188
 42
1.523404861050625
  0
ELLIPSE
  5
9461
330
8C55
100
AcDbEntity
  8
Visible (ISO)
100
AcDbEllipse
 10
1840.43110162864
 20
523.862253613183
 30
0.0
 11
0.0000000000017923
 21
-9.999999999999912
 31
0.0
210
0.0
220
0.0
230
1.0
 40
0.4539904997395467
 41
4.114008622890136
 42
4.664997514640325
  0
ELLIPSE
  5
9462
330
8C55
100
AcDbEntity
  8
Visible (ISO)
100
AcDbEllipse
 10
1835.046110110936
 20
541.9687460550964
 30
0.0
 11
0.0000000000013253
 21
-9.999999999999998
 31
0.0
210
0.0
220
0.0
230
1.0
 40
0.4539904997395469
 41
0.9724159693006626
 42
1.924830589009335
  0
ELLIPSE
  5
9463
330
8C55
100
AcDbEntity
  8
Visible (ISO)
100
AcDbEllipse
 10
1842.259784818356
 20
556.6678506743452
 30
0.0
 11
0.0000000000013252
 21
-9.999999999999838
 31
0.0
210
0.0
220
0.0
230
1.0
 40
0.4539904997395467
 41
4.515434350849066
 42
5.066423242599127
  0
ELLIPSE
  5
9464
330
8C55
100
AcDbEntity
  8
Visible (ISO)
100
AcDbEllipse
 10
1834.32579905005
 20
571.2922604586188
 30
0.0
 11
0.0000000000013257
 21
-9.999999999999946
 31
0.0
210
0.0
220
0.0
230
1.0
 40
0.4539904997395468
 41
1.373841697259273
 42
1.884347289196877
  0
ELLIPSE
  5
9465
330
8C55
100
AcDbEntity
  8
Visible (ISO)
100
AcDbEllipse
 10
1827.841586045763
 20
596.0306335676765
 30
0.0
 11
-0.000000000001326
 21
10.00000000000005
 31
0.0
210
0.0
220
0.0
230
1.0
 40
0.453990499739547
 41
5.4460355691787
 42
5.956541161116223
  0
ELLIPSE
  5
9466
330
8C55
100
AcDbEntity
  8
Visible (ISO)
100
AcDbEllipse
 10
1826.058739135372
 20
618.4775895890967
 30
0.0
 11
0.0000000000013257
 21
-9.999999999999964
 31
0.0
210
0.0
220
0.0
230
1.0
 40
0.4539904997395467
 41
5.405552269366286
 42
5.956541161116223
  0
ELLIPSE
  5
9467
330
8C55
100
AcDbEntity
  8
Visible (ISO)
100
AcDbEllipse
 10
1816.672694420084
 20
612.0664452435191
 30
0.0
 11
-0.0000000000013253
 21
9.99999999999987
 31
0.0
210
0.0
220
0.0
230
1.0
 40
0.4539904997395468
 41
5.405552269366231
 42
5.913822156352475
  0
ELLIPSE
  5
9468
330
8C55
100
AcDbEntity
  8
Visible (ISO)
100
AcDbEllipse
 10
1812.246309327136
 20
631.3920197536632
 30
0.0
 11
0.0000000000013257
 21
-9.999999999999783
 31
0.0
210
0.0
220
0.0
230
1.0
 40
0.453990499739547
 41
5.806977997324858
 42
6.283185307179294
  0
LINE
  5
9469
330
8C55
100
AcDbEntity
  8
Visible (ISO)
100
AcDbLine
 10
1807.042104633847
 20
621.3920197536732
 30
0.0
 11
1800.976715744134
 21
621.3920197536732
 31
0.0
  0
LINE
  5
946A
330
8C55
100
AcDbEntity
  8
Visible (ISO)
100
AcDbLine
 10
1822.047381093207
 20
621.392019753665
 30
0.0
 11
1812.246309327135
 21
621.3920197536632
 31
0.0
  0
LINE
  5
946B
330
8C55
100
AcDbEntity
  8
Visible (ISO)
100
AcDbLine
 10
1805.065097708468
 20
475.6553876914154
 30
0.0
 11
1801.33912933131
 21
482.8616555977492
 31
0.0
  0
LINE
  5
946C
330
8C55
100
AcDbEntity
  8
Visible (ISO)
100
AcDbLine
 10
1799.109820331797
 20
485.2038320269953
 30
0.0
 11
1795.405204021414
 21
486.600913989862
 31
0.0
  0
LINE
  5
946D
330
8C55
100
AcDbEntity
  8
Visible (ISO)
100
AcDbLine
 10
1792.081050042735
 20
492.1184957349356
 30
0.0
 11
1790.450227691955
 21
499.5774171785338
 31
0.0
  0
LINE
  5
946E
330
8C55
100
AcDbEntity
  8
Visible (ISO)
100
AcDbLine
 10
1788.813612446441
 20
503.652077387727
 30
0.0
 11
1785.651321035541
 21
508.1265104551363
 31
0.0
  0
LINE
  5
946F
330
8C55
100
AcDbEntity
  8
Visible (ISO)
100
AcDbLine
 10
1783.570175170588
 20
516.0664351410693
 30
0.0
 11
1783.392120081714
 21
524.3359908923982
 31
0.0
  0
LINE
  5
9470
330
8C55
100
AcDbEntity
  8
Visible (ISO)
100
AcDbLine
 10
1782.608404527763
 20
529.4953034606156
 30
0.0
 11
1780.491211654619
 21
536.3356962077456
 31
0.0
  0
LINE
  5
9471
330
8C55
100
AcDbEntity
  8
Visible (ISO)
100
AcDbLine
 10
1779.983955894435
 20
545.4355928815681
 30
0.0
 11
1781.286977098233
 21
553.2010038479572
 31
0.0
  0
LINE
  5
9472
330
8C55
100
AcDbEntity
  8
Visible (ISO)
100
AcDbLine
 10
1781.480764401476
 20
558.6246881578087
 30
0.0
 11
1780.510479652081
 21
569.3354229752381
 31
0.0
  0
LINE
  5
9473
330
8C55
100
AcDbEntity
  8
Visible (ISO)
100
AcDbLine
 10
1789.990124807137
 20
605.5018781228669
 30
0.0
 11
1794.686377933691
 21
609.0063450339627
 31
0.0
  0
LINE
  5
9474
330
8C55
100
AcDbEntity
  8
Visible (ISO)
100
AcDbLine
 10
1796.721899629961
 20
612.0878529145671
 30
0.0
 11
1799.123494736546
 21
618.4561819180922
 31
0.0
  0
LINE
  5
9475
330
8C55
100
AcDbEntity
  8
Visible (ISO)
100
AcDbLine
 10
1802.95490447541
 20
622.0384968468403
 30
0.0
 11
1806.702919699336
 21
621.4199681503684
 31
0.0
  0
LINE
  5
9476
330
8C55
100
AcDbEntity
  8
Visible (ISO)
100
AcDbLine
 10
1809.1232504988
 20
622.5046205093918
 30
0.0
 11
1812.463596998574
 21
626.2997431933123
 31
0.0
  0
LINE
  5
9477
330
8C55
100
AcDbEntity
  8
Visible (ISO)
100
AcDbLine
 10
1816.62588872848
 20
626.2997431933095
 30
0.0
 11
1819.966235228254
 21
622.5046205093855
 31
0.0
  0
LINE
  5
9478
330
8C55
100
AcDbEntity
  8
Visible (ISO)
100
AcDbLine
 10
1822.386566027719
 20
621.4199681503601
 30
0.0
 11
1826.134581251644
 21
622.0384968468266
 31
0.0
  0
LINE
  5
9479
330
8C55
100
AcDbEntity
  8
Visible (ISO)
100
AcDbLine
 10
1829.965990990507
 20
618.4561819180731
 30
0.0
 11
1832.367586097091
 21
612.0878529145453
 31
0.0
  0
LINE
  5
947A
330
8C55
100
AcDbEntity
  8
Visible (ISO)
100
AcDbLine
 10
1834.403107793363
 20
609.0063450339381
 30
0.0
 11
1839.099360919916
 21
605.5018781228378
 31
0.0
  0
LINE
  5
947B
330
8C55
100
AcDbEntity
  8
Visible (ISO)
100
AcDbLine
 10
1829.298289153845
 20
605.501878122836
 30
0.0
 11
1824.602036027291
 21
609.0063450339381
 31
0.0
  0
LINE
  5
947C
330
8C55
100
AcDbEntity
  8
Visible (ISO)
100
AcDbLine
 10
1822.56651433102
 20
612.0878529145444
 30
0.0
 11
1820.164919224436
 21
618.4561819180722
 31
0.0
  0
LINE
  5
947D
330
8C55
100
AcDbEntity
  8
Visible (ISO)
100
AcDbLine
 10
1810.165163462182
 20
622.5046205093836
 30
0.0
 11
1809.644206980491
 21
623.0965033458311
 31
0.0
  0
ELLIPSE
  5
947E
330
8C55
100
AcDbEntity
  8
Visible (ISO)
100
AcDbEllipse
 10
1814.544742863526
 20
550.1642295964935
 30
0.0
 11
0.0000000000140915
 21
-78.49999999999937
 31
0.0
210
0.0
220
0.0
230
1.0
 40
0.4539904997395468
 41
3.97874239158968
 42
4.398838017981858
  0
ELLIPSE
  5
947F
330
8C55
100
AcDbEntity
  8
Visible (ISO)
100
AcDbEllipse
 10
1814.544742863526
 20
550.1642295964935
 30
0.0
 11
-0.0000000000104028
 21
78.4999999999998
 31
0.0
210
0.0
220
0.0
230
1.0
 40
0.4539904997395469
 41
5.025939942786659
 42
5.446035569178651
  0
ELLIPSE
  5
9480
330
8C55
100
AcDbEntity
  8
Visible (ISO)
100
AcDbEllipse
 10
1814.544742863526
 20
550.1642295964935
 30
0.0
 11
0.0000000000104014
 21
-78.49999999999972
 31
0.0
210
0.0
220
0.0
230
1.0
 40
0.4539904997395468
 41
6.073137493983256
 42
6.49323312037525
  0
ELLIPSE
  5
9481
330
8C55
100
AcDbEntity
  8
Visible (ISO)
100
AcDbEllipse
 10
1814.544742863526
 20
550.1642295964935
 30
0.0
 11
-0.0000000000018451
 21
-99.49999999999961
 31
0.0
210
0.0
220
0.0
230
1.0
 40
0.4539904997395467
 41
0.0
 42
6.283185307179585
  0
ELLIPSE
  5
9482
330
8C55
100
AcDbEntity
  8
Visible (ISO)
100
AcDbEllipse
 10
1804.743671097465
 20
550.1642295964999
 30
0.0
 11
-0.0000000000104028
 21
78.49999999997486
 31
0.0
210
0.0
220
0.0
230
1.0
 40
0.4539904997395468
 41
5.025939942786656
 42
5.047117261176524
  0
ELLIPSE
  5
9483
330
8C55
100
AcDbEntity
  8
Visible (ISO)
100
AcDbEllipse
 10
1804.743671097453
 20
550.1642295964908
 30
0.0
 11
-0.0000000000104056
 21
78.50000000000105
 31
0.0
210
0.0
220
0.0
230
1.0
 40
0.4539904997395468
 41
5.332785851264103
 42
5.446035569178657
  0
ELLIPSE
  5
9484
330
8C55
100
AcDbEntity
  8
Visible (ISO)
100
AcDbEllipse
 10
1804.743671097454
 20
550.1642295964917
 30
0.0
 11
0.0000000000017943
 21
99.4999999999996
 31
0.0
210
0.0
220
0.0
230
1.0
 40
0.4539904997395467
 41
0.0000000000025442
 42
3.141592653592337
  0
ELLIPSE
  5
9485
330
8C55
100
AcDbEntity
  8
Visible (ISO)
100
AcDbEllipse
 10
1798.506625428136
 20
550.1642295964908
 30
0.0
 11
-0.0000000000003911
 21
-20.9999999999999
 31
0.0
210
0.0
220
0.0
230
1.0
 40
0.4539904997395469
 41
0.0000000000025161
 42
2.09439510239456
  0
ELLIPSE
  5
9486
330
8C55
100
AcDbEntity
  8
Visible (ISO)
100
AcDbEllipse
 10
1798.506625428136
 20
550.1642295964908
 30
0.0
 11
0.000000000003772
 21
-20.99999999999989
 31
0.0
210
0.0
220
0.0
230
1.0
 40
0.4539904997395468
 41
4.188790204785899
 42
6.283185307178717
  0
ELLIPSE
  5
9487
330
8C55
100
AcDbEntity
  8
Visible (ISO)
100
AcDbEllipse
 10
1798.506625428136
 20
550.1642295964908
 30
0.0
 11
-0.0000000000027839
 21
20.99999999999989
 31
0.0
210
0.0
220
0.0
230
1.0
 40
0.4539904997395469
 41
5.235987755982691
 42
7.330382858375863
  0
ELLIPSE
  5
9488
330
8C55
100
AcDbEntity
  8
Visible (ISO)
100
AcDbEllipse
 10
1733.463149162385
 20
550.1642295964826
 30
0.0
 11
0.0000000000003287
 21
20.99999999999991
 31
0.0
210
0.0
220
0.0
230
1.0
 40
0.4539904997395468
 41
0.0000000000025589
 42
3.141592653592351
  0
ELLIPSE
  5
9489
330
8C55
100
AcDbEntity
  8
Visible (ISO)
100
AcDbEllipse
 10
1685.749749792098
 20
550.1642295964763
 30
0.0
 11
-0.0000000000057607
 21
43.49999999999979
 31
0.0
210
0.0
220
0.0
230
1.0
 40
0.4539904997395468
 41
5.064444079693371
 42
10.64351918825494
  0
ELLIPSE
  5
948A
330
8C55
100
AcDbEntity
  8
Visible (ISO)
100
AcDbEllipse
 10
1664.90019712609
 20
550.1642295964735
 30
0.0
 11
-0.0000000000008101
 21
-43.49999999999979
 31
0.0
210
0.0
220
0.0
230
1.0
 40
0.4539904997395467
 41
3.141592653592375
 42
6.283185307182169
  0
ELLIPSE
  5
948B
330
8C55
100
AcDbEntity
  8
Visible (ISO)
100
AcDbEllipse
 10
1699.25181211071
 20
550.1642295964781
 30
0.0
 11
0.0000000000002807
 21
14.99999999999993
 31
0.0
210
0.0
220
0.0
230
1.0
 40
0.4539904997395467
 41
0.000000000002681
 42
3.141592653592474
  0
LINE
  5
948C
330
8C55
100
AcDbEntity
  8
Visible (ISO)
100
AcDbLine
 10
1733.463149162385
 20
571.1642295964817
 30
0.0
 11
1760.58915630988
 21
571.1642295964853
 31
0.0
  0
LINE
  5
948D
330
8C55
100
AcDbEntity
  8
0
  6
CENTER
100
AcDbLine
 10
1574.829483597541
 20
550.1642295964607
 30
0.0
 11
1819.939270344509
 21
550.1642295964935
 31
0.0
  0
LINE
  5
948E
330
8C55
100
AcDbEntity
  8
Visible (ISO)
100
AcDbLine
 10
1791.681920846422
 20
571.1642295964899
 30
0.0
 11
1798.506625428136
 21
571.1642295964917
 31
0.0
  0
LINE
  5
948F
330
8C55
100
AcDbEntity
  8
Visible (ISO)
100
AcDbLine
 10
1733.463149162384
 20
529.1642295964826
 30
0.0
 11
1760.589156309878
 21
529.1642295964862
 31
0.0
  0
LINE
  5
9490
330
8C55
100
AcDbEntity
  8
Visible (ISO)
100
AcDbLine
 10
1782.706580242341
 20
529.164229596489
 30
0.0
 11
1789.587930014485
 21
529.1642295964899
 31
0.0
  0
LINE
  5
9491
330
8C55
100
AcDbEntity
  8
Visible (ISO)
100
AcDbLine
 10
1664.900197126091
 20
593.6642295964726
 30
0.0
 11
1685.749749792099
 21
593.6642295964762
 31
0.0
  0
LINE
  5
9492
330
8C55
100
AcDbEntity
  8
Visible (ISO)
100
AcDbLine
 10
1664.900197126089
 20
506.6642295964735
 30
0.0
 11
1685.749749792096
 21
506.6642295964762
 31
0.0
  0
LINE
  5
9493
330
8C55
100
AcDbEntity
  8
Visible (ISO)
100
AcDbLine
 10
1699.25181211071
 20
565.1642295964781
 30
0.0
 11
1726.790878727787
 21
565.1642295964817
 31
0.0
  0
LINE
  5
9494
330
8C55
100
AcDbEntity
  8
Visible (ISO)
100
AcDbLine
 10
1699.251812110709
 20
535.164229596478
 30
0.0
 11
1726.790878727786
 21
535.1642295964817
 31
0.0
  0
LINE
  5
9495
330
8C55
100
AcDbEntity
  8
Visible (ISO)
100
AcDbLine
 10
1804.743671097455
 20
649.6642295964917
 30
0.0
 11
1814.544742863527
 21
649.6642295964926
 31
0.0
  0
LINE
  5
9496
330
8C55
100
AcDbEntity
  8
Visible (ISO)
100
AcDbLine
 10
1804.743671097451
 20
450.6642295964926
 30
0.0
 11
1814.544742863524
 21
450.6642295964944
 31
0.0
  0
LINE
  5
9497
330
8C55
100
AcDbEntity
  8
Visible (ISO)
100
AcDbLine
 10
1848.579006074972
 20
569.3354229751973
 30
0.0
 11
1847.608721325577
 21
558.6246881577686
 31
0.0
  0
LINE
  5
9498
330
8C55
100
AcDbEntity
  8
Visible (ISO)
100
AcDbLine
 10
1847.802508628819
 20
553.201003847918
 30
0.0
 11
1849.105529832617
 21
545.4355928815263
 31
0.0
  0
LINE
  5
9499
330
8C55
100
AcDbEntity
  8
Visible (ISO)
100
AcDbLine
 10
1848.598274072433
 20
536.3356962077038
 30
0.0
 11
1846.481081199287
 21
529.4953034605765
 31
0.0
  0
LINE
  5
949A
330
8C55
100
AcDbEntity
  8
Visible (ISO)
100
AcDbLine
 10
1845.697365645337
 20
524.3359908923618
 30
0.0
 11
1845.519310556463
 21
516.066435141032
 31
0.0
  0
LINE
  5
949B
330
8C55
100
AcDbEntity
  8
Visible (ISO)
100
AcDbLine
 10
1843.438164691511
 20
508.1265104551017
 30
0.0
 11
1840.27587328061
 21
503.6520773876961
 31
0.0
  0
LINE
  5
949C
330
8C55
100
AcDbEntity
  8
Visible (ISO)
100
AcDbLine
 10
1838.639258035095
 20
499.5774171785048
 30
0.0
 11
1837.008435684314
 21
492.1184957349092
 31
0.0
  0
LINE
  5
949D
330
8C55
100
AcDbEntity
  8
Visible (ISO)
100
AcDbLine
 10
1827.207363918242
 20
492.1184957349083
 30
0.0
 11
1828.838186269022
 21
499.5774171785038
 31
0.0
  0
LINE
  5
949E
330
8C55
100
AcDbEntity
  8
Visible (ISO)
100
AcDbLine
 10
1830.474801514538
 20
503.6520773876951
 30
0.0
 11
1833.637092925438
 21
508.1265104551
 31
0.0
  0
LINE
  5
949F
330
8C55
100
AcDbEntity
  8
Visible (ISO)
100
AcDbLine
 10
1835.718238790391
 20
516.0664351410311
 30
0.0
 11
1835.896293879265
 21
524.335990892359
 31
0.0
  0
LINE
  5
94A0
330
8C55
100
AcDbEntity
  8
Visible (ISO)
100
AcDbLine
 10
1836.680009433215
 20
529.4953034605756
 30
0.0
 11
1838.797202306361
 21
536.3356962077029
 31
0.0
  0
LINE
  5
94A1
330
8C55
100
AcDbEntity
  8
Visible (ISO)
100
AcDbLine
 10
1839.304458066545
 20
545.4355928815244
 30
0.0
 11
1838.001436862747
 21
553.2010038479171
 31
0.0
  0
LINE
  5
94A2
330
8C55
100
AcDbEntity
  8
Visible (ISO)
100
AcDbLine
 10
1837.807649559504
 20
558.6246881577677
 30
0.0
 11
1838.7779343089
 21
569.3354229751963
 31
0.0
  0
LINE
  5
94A3
330
8C55
100
AcDbEntity
  8
Visible (ISO)
100
AcDbLine
 10
1833.684281705635
 20
486.6009139898384
 30
0.0
 11
1829.979665395252
 21
485.2038320269772
 31
0.0
  0
LINE
  5
94A4
330
8C55
100
AcDbEntity
  8
Visible (ISO)
100
AcDbLine
 10
1827.750356395738
 20
482.8616555977329
 30
0.0
 11
1824.024388018582
 21
475.6553876914036
 31
0.0
  0
LINE
  5
94A5
330
8C55
100
AcDbEntity
  8
Visible (ISO)
100
AcDbLine
 10
1814.9834454628
 20
477.1255275794288
 30
0.0
 11
1817.949284629667
 21
482.861655597732
 31
0.0
  0
LINE
  5
94A6
330
8C55
100
AcDbEntity
  8
Visible (ISO)
100
AcDbLine
 10
1820.17859362918
 20
485.2038320269754
 30
0.0
 11
1823.883209939563
 21
486.6009139898384
 31
0.0
  0
LINE
  5
94A7
330
8C55
100
AcDbEntity
  8
Visible (ISO)
100
AcDbLine
 10
1835.686787430429
 20
597.3529904099828
 30
0.0
 11
1840.292573096553
 21
597.3529904099838
 31
0.0
  0
ELLIPSE
  5
94A8
330
8C55
100
AcDbEntity
  8
Visible (ISO)
100
AcDbEllipse
 10
1793.5979304352
 20
550.1642295964908
 30
0.0
 11
15.71336210745939
 21
77.85053945378731
 31
0.0
210
0.0
220
0.0
230
1.0
 40
0.6412936800874939
 41
5.243394367310989
 42
5.486027311985817
  0
ELLIPSE
  5
94A9
330
8C55
100
AcDbEntity
  8
Visible (ISO)
100
AcDbEllipse
 10
1793.5979304352
 20
550.1642295964908
 30
0.0
 11
2.616367998260197
 21
20.98997762966242
 31
0.0
210
0.0
220
0.0
230
0.9999999999999998
 40
0.2479472045979669
 41
1.078093948959129
 42
1.547527239367634
  0
ELLIPSE
  5
94AA
330
8C55
100
AcDbEntity
  8
Visible (ISO)
100
AcDbEllipse
 10
1793.5979304352
 20
550.1642295964908
 30
0.0
 11
2.616367998260197
 21
20.98997762966242
 31
0.0
210
0.0
220
0.0
230
0.9999999999999998
 40
0.2479472045979669
 41
0.6086606585502335
 42
1.078093948959128
  0
LINE
  5
94AB
330
8C55
100
AcDbEntity
  8
Visible (ISO)
100
AcDbLine
 10
1792.768717807192
 20
567.7556313326109
 30
0.0
 11
1784.699203840875
 21
593.0646193854287
 31
0.0
  0
LINE
  5
94AC
330
8C55
100
AcDbEntity
  8
Visible (ISO)
100
AcDbLine
 10
1780.789735277778
 20
575.3447955592324
 30
0.0
 11
1788.455808059667
 21
551.3011486607089
 31
0.0
  0
LINE
  5
94AD
330
8C55
100
AcDbEntity
  8
Visible (ISO)
100
AcDbLine
 10
1783.850022393543
 20
551.301148660708
 30
0.0
 11
1781.46718215607
 21
558.7746192258097
 31
0.0
  0
LINE
  5
94AE
330
8C55
100
AcDbEntity
  8
Visible (ISO)
100
AcDbLine
 10
1788.455808059667
 20
551.3011486607089
 30
0.0
 11
1783.850022393542
 21
551.301148660708
 31
0.0
  0
LINE
  5
94AF
330
8C55
100
AcDbEntity
  8
Visible (ISO)
100
AcDbLine
 10
1808.014393879737
 20
551.7150400715869
 30
0.0
 11
1844.605482844079
 21
580.8985077380772
 31
0.0
  0
LINE
  5
94B0
330
8C55
100
AcDbEntity
  8
Visible (ISO)
100
AcDbLine
 10
1840.292573096553
 20
597.3529904099838
 30
0.0
 11
1803.520712965451
 21
568.0253474907337
 31
0.0
  0
LINE
  5
94B1
330
8C55
100
AcDbEntity
  8
Visible (ISO)
100
AcDbLine
 10
1801.509949858725
 20
570.095025084363
 30
0.0
 11
1835.686787430429
 21
597.3529904099828
 31
0.0
  0
ELLIPSE
  5
94B2
330
8C55
100
AcDbEntity
  8
Visible (ISO)
100
AcDbEllipse
 10
1793.5979304352
 20
550.1642295964908
 30
0.0
 11
22.56802694215694
 21
-77.91128155391809
 31
0.0
210
0.0
220
0.0
230
1.0
 40
0.4252009903638305
 41
6.197262855043061
 42
6.281953904572669
  0
LINE
  5
94B3
330
8C55
100
AcDbEntity
  8
Visible (ISO)
100
AcDbLine
 10
1789.056930951962
 20
531.4359087961653
 30
0.0
 11
1793.662716618086
 21
531.4359087961653
 31
0.0
  0
ELLIPSE
  5
94B4
330
8C55
100
AcDbEntity
  8
Visible (ISO)
100
AcDbEllipse
 10
1793.5979304352
 20
550.1642295964908
 30
0.0
 11
6.037306570513311
 21
-20.84250844117551
 31
0.0
210
0.0
220
0.0
230
1.0
 40
0.4252009903638304
 41
5.691204141827189
 42
6.160637432235312
  0
LINE
  5
94B5
330
8C55
100
AcDbEntity
  8
Visible (ISO)
100
AcDbLine
 10
1799.988922573608
 20
484.6675061178571
 30
0.0
 11
1789.056930951962
 21
531.4359087961653
 31
0.0
  0
LINE
  5
94B6
330
8C55
100
AcDbEntity
  8
Visible (ISO)
100
AcDbLine
 10
1793.662716618086
 20
531.4359087961662
 30
0.0
 11
1807.245165160545
 21
473.328525916973
 31
0.0
  0
LINE
  5
94B7
330
8C55
100
AcDbEntity
  8
Visible (ISO)
100
AcDbLine
 10
1816.125146428116
 20
472.2411906413777
 30
0.0
 11
1802.393142764876
 21
530.9883886936328
 31
0.0
  0
ELLIPSE
  5
94B8
330
8C55
100
AcDbEntity
  8
Visible (ISO)
100
AcDbEllipse
 10
1604.570339613938
 20
500.1372618690626
 30
0.0
 11
-12.94708265106166
 21
-0.0000000000050447
 31
0.0
210
0.0
220
0.0
230
1.0
 40
0.7723747711751848
 41
5.422967946097284
 42
6.283185307180604
  0
ELLIPSE
  5
94B9
330
8C55
100
AcDbEntity
  8
Visible (ISO)
100
AcDbEllipse
 10
1604.57033961394
 20
600.1911973238962
 30
0.0
 11
-12.94708265106166
 21
-0.0000000000050469
 31
0.0
210
0.0
220
0.0
230
1.0
 40
0.7723747711751848
 41
0.0000000000010188
 42
0.8602173610834855
  0
ELLIPSE
  5
94BA
330
8C55
100
AcDbEntity
  8
Visible (ISO)
100
AcDbEllipse
 10
1548.833148801119
 20
550.1642295964581
 30
0.0
 11
-72.50366284594534
 21
-0.0000000000282586
 31
0.0
210
0.0
220
0.0
230
1.0
 40
0.7723747711751848
 41
2.281375292507468
 42
2.328952663370604
  0
ELLIPSE
  5
94BB
330
8C55
100
AcDbEntity
  8
Visible (ISO)
100
AcDbEllipse
 10
1548.833148801119
 20
550.1642295964581
 30
0.0
 11
-72.50366284594534
 21
-0.0000000000282586
 31
0.0
210
0.0
220
0.0
230
1.0
 40
0.7723747711751848
 41
2.458374804129808
 42
2.514662955250425
  0
ELLIPSE
  5
94BC
330
8C55
100
AcDbEntity
  8
Visible (ISO)
100
AcDbEllipse
 10
1548.833148801119
 20
550.1642295964581
 30
0.0
 11
-72.50366284594534
 21
-0.0000000000282542
 31
0.0
210
0.0
220
0.0
230
1.0
 40
0.7723747711751848
 41
3.768522351930682
 42
3.824810503051241
  0
ELLIPSE
  5
94BD
330
8C55
100
AcDbEntity
  8
Visible (ISO)
100
AcDbEllipse
 10
1548.833148801119
 20
550.1642295964581
 30
0.0
 11
-72.50366284594534
 21
-0.0000000000282542
 31
0.0
210
0.0
220
0.0
230
1.0
 40
0.7723747711751848
 41
3.954232643810205
 42
4.001810014673279
  0
LINE
  5
94BE
330
8C55
100
AcDbEntity
  8
Visible (ISO)
100
AcDbLine
 10
1591.623256962878
 20
620.1642295964744
 30
0.0
 11
1621.745333433608
 21
620.164229596479
 31
0.0
  0
LINE
  5
94BF
330
8C55
100
AcDbEntity
  8
Visible (ISO)
100
AcDbLine
 10
1591.623256962878
 20
600.1911973238908
 30
0.0
 11
1591.623256962878
 21
620.1642295964744
 31
0.0
  0
LINE
  5
94C0
330
8C55
100
AcDbEntity
  8
Visible (ISO)
100
AcDbLine
 10
1591.623256962876
 20
480.1642295964753
 30
0.0
 11
1591.623256962876
 21
500.137261869058
 31
0.0
  0
LINE
  5
94C1
330
8C55
100
AcDbEntity
  8
Visible (ISO)
100
AcDbLine
 10
1621.745333433607
 20
480.1642295964789
 30
0.0
 11
1591.623256962876
 21
480.1642295964753
 31
0.0
  0
ELLIPSE
  5
94C2
330
8C55
100
AcDbEntity
  8
Visible (ISO)
100
AcDbEllipse
 10
1639.328309881884
 20
550.1642295964699
 30
0.0
 11
0.0000000000106054
 21
-79.99999999999983
 31
0.0
210
0.0
220
0.0
230
1.0
 40
0.4539904997395468
 41
5.217749490668514
 42
5.777824796895092
  0
LINE
  5
94C3
330
8C55
100
AcDbEntity
  8
Visible (ISO)
100
AcDbLine
 10
1607.548974900117
 20
588.8940630585627
 30
0.0
 11
1607.548974900115
 21
511.4343961344153
 31
0.0
  0
ELLIPSE
  5
94C4
330
8C55
100
AcDbEntity
  8
Visible (ISO)
100
AcDbEllipse
 10
1639.328309881884
 20
550.1642295964699
 30
0.0
 11
0.000000000014358
 21
-79.99999999999946
 31
0.0
210
0.0
220
0.0
230
1.0
 40
0.4539904997395467
 41
3.646953163872954
 42
4.207028470099778
  0
LINE
  5
94C5
330
8C55
100
AcDbEntity
  8
Visible (ISO)
100
AcDbLine
 10
1636.625142387555
 20
620.1642295964826
 30
0.0
 11
1621.745333433608
 21
620.1642295964798
 31
0.0
  0
LINE
  5
94C6
330
8C55
100
AcDbEntity
  8
Visible (ISO)
100
AcDbLine
 10
1636.625142387555
 20
620.1642295964826
 30
0.0
 11
1637.516148911742
 21
620.1642295964817
 31
0.0
  0
LINE
  5
94C7
330
8C55
100
AcDbEntity
  8
Visible (ISO)
100
AcDbLine
 10
1622.428783854061
 20
511.4343961344172
 30
0.0
 11
1622.428783854063
 21
588.8940630585653
 31
0.0
  0
ELLIPSE
  5
94C8
330
8C55
100
AcDbEntity
  8
Visible (ISO)
100
AcDbEllipse
 10
1654.208118835829
 20
550.1642295964717
 30
0.0
 11
-0.0000000000068501
 21
79.99999999999983
 31
0.0
210
0.0
220
0.0
230
1.0
 40
0.4539904997395468
 41
2.076156837079148
 42
2.636232143305962
  0
LINE
  5
94C9
330
8C55
100
AcDbEntity
  8
Visible (ISO)
100
AcDbLine
 10
1637.516148911741
 20
480.1642295964826
 30
0.0
 11
1636.625142387551
 21
480.1642295964835
 31
0.0
  0
ELLIPSE
  5
94CA
330
8C55
100
AcDbEntity
  8
Visible (ISO)
100
AcDbEllipse
 10
1654.208118835829
 20
550.1642295964717
 30
0.0
 11
-0.0000000000106054
 21
79.99999999999947
 31
0.0
210
0.0
220
0.0
230
1.0
 40
0.4539904997395467
 41
0.505360510283821
 42
1.065435816510402
  0
ELLIPSE
  5
94CB
330
8C55
100
AcDbEntity
  8
Visible (ISO)
100
AcDbEllipse
 10
1654.208118835829
 20
550.1642295964717
 30
0.0
 11
0.0000000000104694
 21
-78.9999999999996
 31
0.0
210
0.0
220
0.0
230
1.0
 40
0.4539904997395469
 41
5.221008240067668
 42
5.748552117767333
  0
LINE
  5
94CC
330
8C55
100
AcDbEntity
  8
Visible (ISO)
100
AcDbLine
 10
1622.882774353802
 20
588.6349977198339
 30
0.0
 11
1622.882774353801
 21
511.6934614731486
 31
0.0
  0
ELLIPSE
  5
94CD
330
8C55
100
AcDbEntity
  8
Visible (ISO)
100
AcDbEllipse
 10
1654.208118835829
 20
550.1642295964717
 30
0.0
 11
0.0000000000141803
 21
-78.99999999999979
 31
0.0
210
0.0
220
0.0
230
1.0
 40
0.4539904997395469
 41
3.67622584300075
 42
4.203769720700647
  0
LINE
  5
94CE
330
8C55
100
AcDbEntity
  8
Visible (ISO)
100
AcDbLine
 10
1636.625142387551
 20
480.1642295964835
 30
0.0
 11
1621.745333433607
 21
480.1642295964808
 31
0.0
  0
LINE
  5
94CF
330
8C55
100
AcDbEntity
  8
Visible (ISO)
100
AcDbLine
 10
1622.428783854061
 20
511.4343961344172
 30
0.0
 11
1607.548974900115
 21
511.4343961344153
 31
0.0
  0
LINE
  5
94D0
330
8C55
100
AcDbEntity
  8
Visible (ISO)
100
AcDbLine
 10
1622.428783854062
 20
588.8940630585653
 30
0.0
 11
1607.548974900117
 21
588.8940630585627
 31
0.0
  0
ELLIPSE
  5
94D1
330
8C55
100
AcDbEntity
  8
Visible (ISO)
100
AcDbEllipse
 10
1602.412109211908
 20
594.5165746648541
 30
0.0
 11
0.0000000000001353
 21
8.999999999999968
 31
0.0
210
0.0
220
0.0
230
1.0
 40
0.4539904997395469
 41
0.0000000000025026
 42
3.141592653592295
  0
ELLIPSE
  5
94D2
330
8C55
100
AcDbEntity
  8
Visible (ISO)
100
AcDbEllipse
 10
1602.412109211906
 20
505.8118845281111
 30
0.0
 11
-0.0000000000001353
 21
-8.999999999999968
 31
0.0
210
0.0
220
0.0
230
1.0
 40
0.4539904997395469
 41
3.141592653592295
 42
6.283185307182089
  0
LINE
  5
94D3
330
8C55
100
AcDbEntity
  8
Visible (ISO)
100
AcDbLine
 10
1607.548974900117
 20
585.5165746648541
 30
0.0
 11
1602.412109211907
 21
585.5165746648532
 31
0.0
  0
LINE
  5
94D4
330
8C55
100
AcDbEntity
  8
Visible (ISO)
100
AcDbLine
 10
1612.265269130459
 20
603.5165746648551
 30
0.0
 11
1602.412109211908
 21
603.5165746648541
 31
0.0
  0
LINE
  5
94D5
330
8C55
100
AcDbEntity
  8
Visible (ISO)
100
AcDbLine
 10
1602.412109211906
 20
514.811884528112
 30
0.0
 11
1607.548974900115
 21
514.811884528112
 31
0.0
  0
LINE
  5
94D6
330
8C55
100
AcDbEntity
  8
Visible (ISO)
100
AcDbLine
 10
1602.412109211906
 20
496.811884528112
 30
0.0
 11
1612.265269130457
 21
496.811884528113
 31
0.0
  0
LINE
  5
94D7
330
8C55
100
AcDbEntity
  8
Visible (ISO)
100
AcDbLine
 10
1591.623256962878
 20
620.1642295964744
 30
0.0
 11
1575.395500021856
 21
620.164229596468
 31
0.0
  0
LINE
  5
94D8
330
8C55
100
AcDbEntity
  8
Visible (ISO)
100
AcDbLine
 10
1575.395500021855
 20
579.9642295964682
 30
0.0
 11
1575.395500021856
 21
620.164229596468
 31
0.0
  0
LINE
  5
94D9
330
8C55
100
AcDbEntity
  8
Visible (ISO)
100
AcDbLine
 10
1575.395500021854
 20
480.164229596469
 30
0.0
 11
1575.395500021854
 21
520.3642295964678
 31
0.0
  0
LINE
  5
94DA
330
8C55
100
AcDbEntity
  8
Visible (ISO)
100
AcDbLine
 10
1575.395500021854
 20
480.164229596469
 30
0.0
 11
1591.623256962876
 21
480.1642295964753
 31
0.0
  0
LINE
  5
94DB
330
8C55
100
AcDbEntity
  8
Visible (ISO)
100
AcDbLine
 10
1575.395500021855
 20
579.9642295964682
 30
0.0
 11
1594.60235676416
 21
563.1546106532429
 31
0.0
  0
ELLIPSE
  5
94DC
330
8C55
100
AcDbEntity
  8
Visible (ISO)
100
AcDbEllipse
 10
1589.654705683592
 20
550.1642295964744
 30
0.0
 11
-0.0000000000002801
 21
-14.99999999999994
 31
0.0
210
0.0
220
0.0
230
1.0
 40
0.6596868107423743
 41
0.5235987755981544
 42
2.617993877991391
  0
LINE
  5
94DD
330
8C55
100
AcDbEntity
  8
Visible (ISO)
100
AcDbLine
 10
1594.60235676416
 20
537.1738485397096
 30
0.0
 11
1575.395500021854
 21
520.3642295964678
 31
0.0
  0
LINE
  5
94DE
330
8C55
100
AcDbEntity
  8
Visible (ISO)
100
AcDbLine
 10
1653.531080140496
 20
658.1642295964654
 30
0.0
 11
1576.031080140497
 21
658.1642295964671
 31
0.0
  0
LINE
  5
94DF
330
8C55
100
AcDbEntity
  8
Visible (ISO)
100
AcDbLine
 10
1653.531080140496
 20
655.314229596465
 30
0.0
 11
1576.031080140497
 21
655.3142295964668
 31
0.0
  0
LINE
  5
94E0
330
8C55
100
AcDbEntity
  8
Visible (ISO)
100
AcDbLine
 10
1646.531080140496
 20
652.7664379566028
 30
0.0
 11
1583.031080140497
 21
652.7664379566036
 31
0.0
  0
LINE
  5
94E1
330
8C55
100
AcDbEntity
  8
Visible (ISO)
100
AcDbLine
 10
1576.031080140497
 20
655.3142295964677
 30
0.0
 11
1576.031080140497
 21
658.1642295964671
 31
0.0
  0
LINE
  5
94E2
330
8C55
100
AcDbEntity
  8
Visible (ISO)
100
AcDbLine
 10
1653.531080140496
 20
655.314229596465
 30
0.0
 11
1653.531080140496
 21
658.1642295964654
 31
0.0
  0
LINE
  5
94E3
330
8C55
100
AcDbEntity
  8
Visible (ISO)
100
AcDbLine
 10
1583.031080140496
 20
652.7664379566036
 30
0.0
 11
1576.031080140496
 21
655.3142295964677
 31
0.0
  0
LINE
  5
94E4
330
8C55
100
AcDbEntity
  8
Visible (ISO)
100
AcDbLine
 10
1646.531080140496
 20
652.7664379566028
 30
0.0
 11
1653.531080140496
 21
655.314229596465
 31
0.0
  0
LINE
  5
94E5
330
8C55
100
AcDbEntity
  8
Visible (ISO)
100
AcDbLine
 10
1583.031080140495
 20
620.1642295964671
 30
0.0
 11
1583.031080140496
 21
652.7664379566036
 31
0.0
  0
LINE
  5
94E6
330
8C55
100
AcDbEntity
  8
0
  6
CENTER
100
AcDbLine
 10
1614.78108014049
 20
407.747149563255
 30
0.0
 11
1614.781080140497
 21
692.5813096296775
 31
0.0
  0
LINE
  5
94E7
330
8C55
100
AcDbEntity
  8
Visible (ISO)
100
AcDbLine
 10
1646.531080140495
 20
620.1642295964663
 30
0.0
 11
1646.531080140496
 21
652.7664379566028
 31
0.0
  0
LINE
  5
94E8
330
8C55
100
AcDbEntity
  8
Visible (ISO)
100
AcDbLine
 10
1653.531080140492
 20
442.1642295964662
 30
0.0
 11
1576.031080140493
 21
442.164229596468
 31
0.0
  0
LINE
  5
94E9
330
8C55
100
AcDbEntity
  8
Visible (ISO)
100
AcDbLine
 10
1653.531080140492
 20
445.0142295964666
 30
0.0
 11
1576.031080140493
 21
445.0142295964684
 31
0.0
  0
LINE
  5
94EA
330
8C55
100
AcDbEntity
  8
Visible (ISO)
100
AcDbLine
 10
1646.531080140493
 20
447.5620212363297
 30
0.0
 11
1583.031080140494
 21
447.5620212363316
 31
0.0
  0
LINE
  5
94EB
330
8C55
100
AcDbEntity
  8
Visible (ISO)
100
AcDbLine
 10
1576.031080140493
 20
442.164229596468
 30
0.0
 11
1576.031080140493
 21
445.0142295964684
 31
0.0
  0
LINE
  5
94EC
330
8C55
100
AcDbEntity
  8
Visible (ISO)
100
AcDbLine
 10
1653.531080140492
 20
442.1642295964662
 30
0.0
 11
1653.531080140492
 21
445.0142295964666
 31
0.0
  0
LINE
  5
94ED
330
8C55
100
AcDbEntity
  8
Visible (ISO)
100
AcDbLine
 10
1646.531080140493
 20
447.5620212363297
 30
0.0
 11
1653.531080140492
 21
445.0142295964666
 31
0.0
  0
LINE
  5
94EE
330
8C55
100
AcDbEntity
  8
Visible (ISO)
100
AcDbLine
 10
1583.031080140493
 20
447.5620212363306
 30
0.0
 11
1576.031080140493
 21
445.0142295964684
 31
0.0
  0
LINE
  5
94EF
330
8C55
100
AcDbEntity
  8
Visible (ISO)
100
AcDbLine
 10
1583.031080140493
 20
447.5620212363316
 30
0.0
 11
1583.031080140494
 21
480.1642295964671
 31
0.0
  0
LINE
  5
94F0
330
8C55
100
AcDbEntity
  8
Visible (ISO)
100
AcDbLine
 10
1646.531080140493
 20
447.5620212363297
 30
0.0
 11
1646.531080140493
 21
480.1642295964662
 31
0.0
  0
ELLIPSE
  5
94F1
330
8C55
100
AcDbEntity
  8
Visible (ISO)
100
AcDbEllipse
 10
1664.009190601882
 20
550.1642295965527
 30
0.0
 11
-0.0000000000143663
 21
80.0000000000905
 31
0.0
210
0.0
220
0.0
230
1.0
 40
0.4539904997395467
 41
3.646953163872968
 42
3.676225843000707
  0
ELLIPSE
  5
94F2
330
8C55
100
AcDbEntity
  8
Visible (ISO)
100
AcDbEllipse
 10
1664.90019712609
 20
550.1642295964735
 30
0.0
 11
0.0000000000104722
 21
-78.99999999999969
 31
0.0
210
0.0
220
0.0
230
1.0
 40
0.4539904997395468
 41
0.5086192596829644
 42
1.062177067111251
  0
SPLINE
  5
94F3
330
8C55
100
AcDbEntity
  8
Visible (ISO)
100
AcDbSpline
210
0.0
220
0.0
230
1.0
 70
     8
 71
     3
 72
     8
 73
     4
 74
     0
 42
0.0000000001
 43
0.0000000001
 40
-0.143772776960857
 40
-0.143772776960857
 40
-0.143772776960857
 40
-0.143772776960857
 40
0.0
 40
0.0
 40
0.0
 40
0.0
 10
1681.592167050176
 20
480.1642295964635
 30
0.0
 10
1681.85012055209
 20
480.497594732075
 30
0.0
 10
1682.107926158886
 20
480.8309370888069
 30
0.0
 10
1682.365560371769
 20
481.1642295964626
 30
0.0
  0
LINE
  5
94F4
330
8C55
100
AcDbEntity
  8
Visible (ISO)
100
AcDbLine
 10
1696.22554160812
 20
588.6349977197975
 30
0.0
 11
1696.22554160812
 21
587.0396731326715
 31
0.0
  0
LINE
  5
94F5
330
8C55
100
AcDbEntity
  8
Visible (ISO)
100
AcDbLine
 10
1696.225541608118
 20
513.2887860602383
 30
0.0
 11
1696.225541608118
 21
511.6934614731122
 31
0.0
  0
LINE
  5
94F6
330
8C55
100
AcDbEntity
  8
Visible (ISO)
100
AcDbLine
 10
1681.59216705018
 20
620.1642295964626
 30
0.0
 11
1646.426214153627
 21
620.1642295964835
 31
0.0
  0
SPLINE
  5
94F7
330
8C55
100
AcDbEntity
  8
Visible (ISO)
100
AcDbSpline
210
0.0
220
0.0
230
1.0
 70
     8
 71
     3
 72
     8
 73
     4
 74
     0
 42
0.0000000001
 43
0.0000000001
 40
-0.1437727769613388
 40
-0.1437727769613388
 40
-0.1437727769613388
 40
-0.1437727769613388
 40
0.0
 40
0.0
 40
0.0
 40
0.0
 10
1646.426214153627
 20
620.1642295964835
 30
0.0
 10
1646.762321673246
 20
619.8308644608738
 30
0.0
 10
1647.098536495725
 20
619.497522104141
 30
0.0
 10
1647.434833880411
 20
619.1642295964835
 30
0.0
  0
LINE
  5
94F8
330
8C55
100
AcDbEntity
  8
Visible (ISO)
100
AcDbLine
 10
1647.434833880411
 20
619.1642295964835
 30
0.0
 11
1682.365560371772
 21
619.1642295964626
 31
0.0
  0
SPLINE
  5
94F9
330
8C55
100
AcDbEntity
  8
Visible (ISO)
100
AcDbSpline
210
0.0
220
0.0
230
1.0
 70
     8
 71
     3
 72
     8
 73
     4
 74
     0
 42
0.0000000001
 43
0.0000000001
 40
-0.1437727732805682
 40
-0.1437727732805682
 40
-0.1437727732805682
 40
-0.1437727732805682
 40
0.0
 40
0.0
 40
0.0
 40
0.0
 10
1682.365560371772
 20
619.1642295964626
 30
0.0
 10
1682.107926158886
 20
619.497522104121
 30
0.0
 10
1681.850120552089
 20
619.8308644608547
 30
0.0
 10
1681.59216705018
 20
620.1642295964626
 30
0.0
  0
ELLIPSE
  5
94FA
330
8C55
100
AcDbEntity
  8
Visible (ISO)
100
AcDbEllipse
 10
1664.009190601896
 20
550.1642295964499
 30
0.0
 11
-0.0000000000106082
 21
80.00000000002643
 31
0.0
210
0.0
220
0.0
230
1.0
 40
0.4539904997395469
 41
5.748552117767323
 42
5.777824796895098
  0
ELLIPSE
  5
94FB
330
8C55
100
AcDbEntity
  8
Visible (ISO)
100
AcDbEllipse
 10
1664.90019712609
 20
550.1642295964735
 30
0.0
 11
0.0000000000067668
 21
-78.99999999999969
 31
0.0
210
0.0
220
0.0
230
1.0
 40
0.4539904997395469
 41
2.079415586478297
 42
2.632973393906819
  0
ELLIPSE
  5
94FC
330
8C55
100
AcDbEntity
  8
Visible (ISO)
100
AcDbEllipse
 10
1664.009190601902
 20
550.1642295964735
 30
0.0
 11
0.000000000014358
 21
-79.99999999999963
 31
0.0
210
0.0
220
0.0
230
1.0
 40
0.4539904997395467
 41
3.64695316387295
 42
4.207028470099778
  0
SPLINE
  5
94FD
330
8C55
100
AcDbEntity
  8
Visible (ISO)
100
AcDbSpline
210
0.0
220
0.0
230
1.0
 70
     8
 71
     3
 72
     8
 73
     4
 74
     0
 42
0.0000000001
 43
0.0000000001
 40
-0.1437727769618315
 40
-0.1437727769618315
 40
-0.1437727769618315
 40
-0.1437727769618315
 40
0.0
 40
0.0
 40
0.0
 40
0.0
 10
1632.229855620135
 20
588.8940630585663
 30
0.0
 10
1632.678230735408
 20
588.8079885506718
 30
0.0
 10
1633.126575213164
 20
588.721632981858
 30
0.0
 10
1633.574852644063
 20
588.6349977198348
 30
0.0
  0
ELLIPSE
  5
94FE
330
8C55
100
AcDbEntity
  8
Visible (ISO)
100
AcDbEllipse
 10
1664.90019712609
 20
550.1642295964735
 30
0.0
 11
-0.0000000000104694
 21
78.99999999999977
 31
0.0
210
0.0
220
0.0
230
1.0
 40
0.4539904997395467
 41
0.5086192596829813
 42
1.062177067111251
  0
LINE
  5
94FF
330
8C55
100
AcDbEntity
  8
Visible (ISO)
100
AcDbLine
 10
1632.229855620135
 20
588.8940630585663
 30
0.0
 11
1632.229855620134
 21
511.4343961344189
 31
0.0
  0
SPLINE
  5
9500
330
8C55
100
AcDbEntity
  8
Visible (ISO)
100
AcDbSpline
210
0.0
220
0.0
230
1.0
 70
     8
 71
     3
 72
     8
 73
     4
 74
     0
 42
0.0000000001
 43
0.0000000001
 40
-0.143772776960857
 40
-0.143772776960857
 40
-0.143772776960857
 40
-0.143772776960857
 40
0.0
 40
0.0
 40
0.0
 40
0.0
 10
1632.229855620134
 20
511.4343961344181
 30
0.0
 10
1632.678230735413
 20
511.5204706423143
 30
0.0
 10
1633.126575213166
 20
511.6068262111272
 30
0.0
 10
1633.574852644061
 20
511.6934614731495
 30
0.0
  0
LINE
  5
9501
330
8C55
100
AcDbEntity
  8
Visible (ISO)
100
AcDbLine
 10
1633.574852644061
 20
511.6934614731495
 30
0.0
 11
1633.574852644062
 21
588.6349977198348
 31
0.0
  0
ELLIPSE
  5
9502
330
8C55
100
AcDbEntity
  8
Visible (ISO)
100
AcDbEllipse
 10
1664.009190601902
 20
550.1642295964735
 30
0.0
 11
0.0000000000106054
 21
-79.99999999999957
 31
0.0
210
0.0
220
0.0
230
1.0
 40
0.4539904997395468
 41
5.217749490668506
 42
5.777824796895092
  0
SPLINE
  5
9503
330
8C55
100
AcDbEntity
  8
Visible (ISO)
100
AcDbSpline
210
0.0
220
0.0
230
1.0
 70
     8
 71
     3
 72
     8
 73
     4
 74
     0
 42
0.0000000001
 43
0.0000000001
 40
-0.1437727769607307
 40
-0.1437727769607307
 40
-0.1437727769607307
 40
-0.1437727769607307
 40
0.0
 40
0.0
 40
0.0
 40
0.0
 10
1646.426214153624
 20
480.1642295964835
 30
0.0
 10
1646.762321673247
 20
480.4975947320977
 30
0.0
 10
1647.098536495724
 20
480.8309370888288
 30
0.0
 10
1647.434833880409
 20
481.1642295964844
 30
0.0
  0
ELLIPSE
  5
9504
330
8C55
100
AcDbEntity
  8
Visible (ISO)
100
AcDbEllipse
 10
1664.90019712609
 20
550.1642295964735
 30
0.0
 11
-0.000000000006764
 21
78.99999999999966
 31
0.0
210
0.0
220
0.0
230
1.0
 40
0.4539904997395468
 41
2.079415586478297
 42
2.632973393906819
  0
LINE
  5
9505
330
8C55
100
AcDbEntity
  8
Visible (ISO)
100
AcDbLine
 10
1646.426214153624
 20
480.1642295964835
 30
0.0
 11
1681.592167050176
 21
480.1642295964635
 31
0.0
  0
LINE
  5
9506
330
8C55
100
AcDbEntity
  8
Visible (ISO)
100
AcDbLine
 10
1682.365560371769
 20
481.1642295964626
 30
0.0
 11
1647.434833880409
 21
481.1642295964844
 31
0.0
  0
ELLIPSE
  5
9507
330
8C55
100
AcDbEntity
  8
Visible (ISO)
100
AcDbEllipse
 10
1655.099125360018
 20
550.1642295964717
 30
0.0
 11
-0.0000000000068501
 21
79.99999999999975
 31
0.0
210
0.0
220
0.0
230
1.0
 40
0.4539904997395469
 41
2.076156837079148
 42
2.636232143305964
  0
LINE
  5
9508
330
8C55
100
AcDbEntity
  8
Visible (ISO)
100
AcDbLine
 10
1623.319790378249
 20
511.4343961344172
 30
0.0
 11
1623.319790378251
 21
588.8940630585653
 31
0.0
  0
ELLIPSE
  5
9509
330
8C55
100
AcDbEntity
  8
Visible (ISO)
100
AcDbEllipse
 10
1655.099125360018
 20
550.1642295964717
 30
0.0
 11
-0.0000000000106054
 21
79.99999999999963
 31
0.0
210
0.0
220
0.0
230
1.0
 40
0.4539904997395467
 41
0.5053605102838202
 42
1.065435816510402
  0
SPLINE
  5
950A
330
8C55
100
AcDbEntity
  8
Visible (ISO)
100
AcDbSpline
210
0.0
220
0.0
230
1.0
 70
     8
 71
     3
 72
     8
 73
     4
 74
     0
 42
0.0000000001
 43
0.0000000001
 40
-0.1437727732813543
 40
-0.1437727732813543
 40
-0.1437727732813543
 40
-0.1437727732813543
 40
0.0
 40
0.0
 40
0.0
 40
0.0
 10
1622.882774353802
 20
588.6349977198339
 30
0.0
 10
1623.028428520477
 20
588.7216329818563
 30
0.0
 10
1623.174104471997
 20
588.8079885506701
 30
0.0
 10
1623.319790378251
 20
588.8940630585653
 30
0.0
  0
SPLINE
  5
950B
330
8C55
100
AcDbEntity
  8
Visible (ISO)
100
AcDbSpline
210
0.0
220
0.0
230
1.0
 70
     8
 71
     3
 72
     8
 73
     4
 74
     0
 42
0.0000000001
 43
0.0000000001
 40
-0.1437727732828385
 40
-0.1437727732828385
 40
-0.1437727732828385
 40
-0.1437727732828385
 40
0.0
 40
0.0
 40
0.0
 40
0.0
 10
1622.882774353801
 20
511.6934614731486
 30
0.0
 10
1623.028428520475
 20
511.6068262111262
 30
0.0
 10
1623.174104471994
 20
511.5204706423124
 30
0.0
 10
1623.319790378249
 20
511.4343961344172
 30
0.0
  0
LINE
  5
950C
330
8C55
100
AcDbEntity
  8
Visible (ISO)
100
AcDbLine
 10
1683.174454488322
 20
482.188238263952
 30
0.0
 11
1682.514767677579
 21
481.3277826774643
 31
0.0
  0
LINE
  5
950D
330
8C55
100
AcDbEntity
  8
Visible (ISO)
100
AcDbLine
 10
1683.174454488325
 20
618.1402209289723
 30
0.0
 11
1682.514767677582
 21
619.0006765154599
 31
0.0
  0
LINE
  5
950E
330
8C55
100
AcDbEntity
  8
Visible (ISO)
100
AcDbLine
 10
1635.933861473597
 20
618.1402209289932
 30
0.0
 11
1636.59354828434
 21
619.0006765154809
 31
0.0
  0
LINE
  5
950F
330
8C55
100
AcDbEntity
  8
Visible (ISO)
100
AcDbLine
 10
1635.933861473596
 20
482.188238263972
 30
0.0
 11
1636.593548284338
 21
481.3277826774853
 31
0.0
  0
LINE
  5
9510
330
8C55
100
AcDbEntity
  8
Visible (ISO)
100
AcDbLine
 10
1632.229855620134
 20
511.4343961344189
 30
0.0
 11
1623.319790378249
 21
511.4343961344172
 31
0.0
  0
LINE
  5
9511
330
8C55
100
AcDbEntity
  8
Visible (ISO)
100
AcDbLine
 10
1646.426214153624
 20
480.1642295964835
 30
0.0
 11
1637.516148911741
 21
480.1642295964835
 31
0.0
  0
LINE
  5
9512
330
8C55
100
AcDbEntity
  8
Visible (ISO)
100
AcDbLine
 10
1632.229855620135
 20
588.8940630585663
 30
0.0
 11
1623.319790378251
 21
588.8940630585653
 31
0.0
  0
LINE
  5
9513
330
8C55
100
AcDbEntity
  8
Visible (ISO)
100
AcDbLine
 10
1646.426214153627
 20
620.1642295964835
 30
0.0
 11
1637.516148911742
 21
620.1642295964826
 31
0.0
  0
ELLIPSE
  5
9514
330
8C55
100
AcDbEntity
  8
Visible (ISO)
100
AcDbEllipse
 10
1980.78664530606
 20
230.2479543601636
 30
0.0
 11
-10.0000000000002
 21
0.0000000000054578
 31
0.0
210
0.0
220
0.0
230
1.0
 40
0.891006524188371
 41
5.562631902046651
 42
6.073137493984184
  0
ELLIPSE
  5
9515
330
8C55
100
AcDbEntity
  8
Visible (ISO)
100
AcDbEllipse
 10
1980.786645306063
 20
235.2418498572975
 30
0.0
 11
-10.00000000000021
 21
0.0000000000054547
 31
0.0
210
0.0
220
0.0
230
1.0
 40
0.891006524188371
 41
5.562631902046557
 42
6.073137493984105
  0
ELLIPSE
  5
9516
330
8C55
100
AcDbEntity
  8
Visible (ISO)
100
AcDbEllipse
 10
1972.964099068907
 20
249.3183122556134
 30
0.0
 11
9.999999999999753
 21
-0.0000000000054561
 31
0.0
210
0.0
220
0.0
230
1.0
 40
0.8910065241883714
 41
5.562631902046616
 42
6.113620793796581
  0
ELLIPSE
  5
9517
330
8C55
100
AcDbEntity
  8
Visible (ISO)
100
AcDbEllipse
 10
1972.96409906891
 20
254.3122077527483
 30
0.0
 11
9.999999999999751
 21
-0.0000000000054554
 31
0.0
210
0.0
220
0.0
230
1.0
 40
0.8910065241883716
 41
5.562631902046616
 42
6.11362079379666
  0
ELLIPSE
  5
9518
330
8C55
100
AcDbEntity
  8
Visible (ISO)
100
AcDbEllipse
 10
1994.074348033747
 20
258.5757239520322
 30
0.0
 11
-9.999999999999984
 21
0.0000000000054547
 31
0.0
210
0.0
220
0.0
230
1.0
 40
0.8910065241883712
 41
5.161206174087864
 42
6.113620793796502
  0
ELLIPSE
  5
9519
330
8C55
100
AcDbEntity
  8
Visible (ISO)
100
AcDbEllipse
 10
1992.855265965512
 20
277.8316347615706
 30
0.0
 11
-10.00000000000003
 21
0.0000000000063789
 31
0.0
210
0.0
220
0.0
230
1.0
 40
0.8910065241883712
 41
2.019613520498326
 42
2.570602412248344
  0
ELLIPSE
  5
951A
330
8C55
100
AcDbEntity
  8
Visible (ISO)
100
AcDbEllipse
 10
2014.157022963132
 20
274.4068159234235
 30
0.0
 11
-9.999999999999946
 21
0.0000000000054567
 31
0.0
210
0.0
220
0.0
230
1.0
 40
0.8910065241883714
 41
4.759780446129174
 42
5.712195065837945
  0
ELLIPSE
  5
951B
330
8C55
100
AcDbEntity
  8
Visible (ISO)
100
AcDbEllipse
 10
2021.479104156111
 20
292.5563913701449
 30
0.0
 11
-10.00000000000012
 21
0.0000000000063755
 31
0.0
210
0.0
220
0.0
230
1.0
 40
0.8910065241883714
 41
1.618187792539605
 42
2.169176684289611
  0
ELLIPSE
  5
951C
330
8C55
100
AcDbEntity
  8
Visible (ISO)
100
AcDbEllipse
 10
2039.585596598022
 20
281.9877504454403
 30
0.0
 11
-9.999999999999991
 21
0.0000000000054547
 31
0.0
210
0.0
220
0.0
230
1.0
 40
0.8910065241883714
 41
4.358354718170517
 42
5.310769337879235
  0
ELLIPSE
  5
951D
330
8C55
100
AcDbEntity
  8
Visible (ISO)
100
AcDbEllipse
 10
2054.284701217274
 20
296.1453842095203
 30
0.0
 11
-9.999999999999944
 21
0.0000000000054567
 31
0.0
210
0.0
220
0.0
230
1.0
 40
0.8910065241883714
 41
1.216762064580724
 42
1.767750956330768
  0
ELLIPSE
  5
951E
330
8C55
100
AcDbEntity
  8
Visible (ISO)
100
AcDbEllipse
 10
2068.909111001544
 20
280.5740603901136
 30
0.0
 11
-9.9999999999999
 21
0.0000000000054557
 31
0.0
210
0.0
220
0.0
230
1.0
 40
0.8910065241883714
 41
4.398838017983041
 42
4.90934360992056
  0
ELLIPSE
  5
951F
330
8C55
100
AcDbEntity
  8
Visible (ISO)
100
AcDbEllipse
 10
2093.6474841106
 20
267.848075827968
 30
0.0
 11
9.999999999999943
 21
-0.0000000000054574
 31
0.0
210
0.0
220
0.0
230
1.0
 40
0.8910065241883714
 41
0.3266441460637072
 42
0.8371497380012304
  0
ELLIPSE
  5
9520
330
8C55
100
AcDbEntity
  8
Visible (ISO)
100
AcDbEllipse
 10
2116.09444013202
 20
264.3490417519247
 30
0.0
 11
-9.999999999999985
 21
0.0000000000054644
 31
0.0
210
0.0
220
0.0
230
1.0
 40
0.8910065241883712
 41
0.3266441460637077
 42
0.8776330378137267
  0
ELLIPSE
  5
9521
330
8C55
100
AcDbEntity
  8
Visible (ISO)
100
AcDbEllipse
 10
2109.68329578644
 20
245.9278917885609
 30
0.0
 11
9.999999999999927
 21
-0.0000000000054563
 31
0.0
210
0.0
220
0.0
230
1.0
 40
0.8910065241883716
 41
6.208403725284515
 42
7.160818344993151
  0
ELLIPSE
  5
9522
330
8C55
100
AcDbEntity
  8
Visible (ISO)
100
AcDbEllipse
 10
2129.008870296583
 20
237.2406219037271
 30
0.0
 11
-9.999999999999978
 21
0.0000000000054581
 31
0.0
210
0.0
220
0.0
230
1.0
 40
0.8910065241883716
 41
6.208403725284515
 42
6.759392617034608
  0
ELLIPSE
  5
9523
330
8C55
100
AcDbEntity
  8
Visible (ISO)
100
AcDbEllipse
 10
2115.029194491945
 20
222.5158652951528
 30
0.0
 11
9.999999999999968
 21
-0.0000000000054623
 31
0.0
210
0.0
220
0.0
230
1.0
 40
0.8910065241883714
 41
5.806977997325736
 42
6.759392617034473
  0
ELLIPSE
  5
9524
330
8C55
100
AcDbEntity
  8
Visible (ISO)
100
AcDbEllipse
 10
2129.008870296587
 20
207.7911086865775
 30
0.0
 11
-9.999999999999978
 21
0.0000000000054553
 31
0.0
210
0.0
220
0.0
230
1.0
 40
0.8910065241883712
 41
5.806977997325871
 42
6.357966889075891
  0
ELLIPSE
  5
9525
330
8C55
100
AcDbEntity
  8
Visible (ISO)
100
AcDbEllipse
 10
2109.683295786446
 20
199.1038388017447
 30
0.0
 11
9.999999999999953
 21
-0.0000000000054616
 31
0.0
210
0.0
220
0.0
230
1.0
 40
0.8910065241883712
 41
5.405552269367206
 42
6.357966889075891
  0
ELLIPSE
  5
9526
330
8C55
100
AcDbEntity
  8
Visible (ISO)
100
AcDbEllipse
 10
2116.094440132032
 20
180.6826888383799
 30
0.0
 11
-10.00000000000015
 21
0.0000000000054602
 31
0.0
210
0.0
220
0.0
230
1.0
 40
0.8910065241883714
 41
5.405552269367071
 42
5.956541161117161
  0
ELLIPSE
  5
9527
330
8C55
100
AcDbEntity
  8
Visible (ISO)
100
AcDbEllipse
 10
2093.647484110613
 20
177.1836547623375
 30
0.0
 11
10.00000000000005
 21
-0.0000000000054567
 31
0.0
210
0.0
220
0.0
230
1.0
 40
0.8910065241883714
 41
5.446035569179573
 42
5.956541161117123
  0
ELLIPSE
  5
9528
330
8C55
100
AcDbEntity
  8
Visible (ISO)
100
AcDbEllipse
 10
2068.90911100156
 20
164.457670200191
 30
0.0
 11
9.999999999999944
 21
-0.0000000000054554
 31
0.0
210
0.0
220
0.0
230
1.0
 40
0.8910065241883714
 41
4.51543435085007
 42
5.025939942787629
  0
ELLIPSE
  5
9529
330
8C55
100
AcDbEntity
  8
Visible (ISO)
100
AcDbEllipse
 10
2054.284701217295
 20
148.8863463807843
 30
0.0
 11
9.999999999999838
 21
-0.0000000000054554
 31
0.0
210
0.0
220
0.0
230
1.0
 40
0.8910065241883712
 41
1.373841697260278
 42
1.924830589010337
  0
ELLIPSE
  5
952A
330
8C55
100
AcDbEntity
  8
Visible (ISO)
100
AcDbEllipse
 10
2039.585596598038
 20
163.0439801448634
 30
0.0
 11
10.0
 21
-0.0000000000045394
 31
0.0
210
0.0
220
0.0
230
1.0
 40
0.8910065241883714
 41
4.114008622891261
 42
5.066423242599896
  0
ELLIPSE
  5
952B
330
8C55
100
AcDbEntity
  8
Visible (ISO)
100
AcDbEllipse
 10
2021.479104156131
 20
152.4753392201597
 30
0.0
 11
9.999999999999909
 21
-0.0000000000054557
 31
0.0
210
0.0
220
0.0
230
1.0
 40
0.8910065241883716
 41
0.9724159693014016
 42
1.523404861051524
  0
ELLIPSE
  5
952C
330
8C55
100
AcDbEntity
  8
Visible (ISO)
100
AcDbEllipse
 10
2014.157022963148
 20
170.624914666882
 30
0.0
 11
9.999999999999966
 21
-0.000000000004536
 31
0.0
210
0.0
220
0.0
230
1.0
 40
0.8910065241883716
 41
3.712582894932545
 42
4.664997514641235
  0
ELLIPSE
  5
952D
330
8C55
100
AcDbEntity
  8
Visible (ISO)
100
AcDbEllipse
 10
1992.855265965527
 20
167.2000958287341
 30
0.0
 11
10.0000000000001
 21
-0.0000000000054554
 31
0.0
210
0.0
220
0.0
230
1.0
 40
0.8910065241883714
 41
0.5709902413427912
 42
1.121979133092851
  0
ELLIPSE
  5
952E
330
8C55
100
AcDbEntity
  8
Visible (ISO)
100
AcDbEllipse
 10
1994.074348033757
 20
186.4560066382715
 30
0.0
 11
-9.999999999999939
 21
0.0000000000054559
 31
0.0
210
0.0
220
0.0
230
1.0
 40
0.891006524188371
 41
0.1695645133840413
 42
1.121979133092851
  0
ELLIPSE
  5
952F
330
8C55
100
AcDbEntity
  8
Visible (ISO)
100
AcDbEllipse
 10
1972.96409906892
 20
190.7195228375572
 30
0.0
 11
9.999999999999872
 21
-0.0000000000054498
 31
0.0
210
0.0
220
0.0
230
1.0
 40
0.8910065241883712
 41
0.1695645133841186
 42
0.7205534051341776
  0
ELLIPSE
  5
9530
330
8C55
100
AcDbEntity
  8
Visible (ISO)
100
AcDbEllipse
 10
1980.786645306068
 20
209.7898807330062
 30
0.0
 11
-9.999999999999928
 21
0.0000000000054574
 31
0.0
210
0.0
220
0.0
230
1.0
 40
0.8910065241883716
 41
0.2100478131966161
 42
0.7205534051341778
  0
ELLIPSE
  5
9531
330
8C55
100
AcDbEntity
  8
Visible (ISO)
100
AcDbEllipse
 10
1994.074348033744
 20
253.5818284548974
 30
0.0
 11
-9.99999999999998
 21
0.0000000000054561
 31
0.0
210
0.0
220
0.0
230
1.0
 40
0.8910065241883716
 41
5.161206174088027
 42
6.113620793796684
  0
ELLIPSE
  5
9532
330
8C55
100
AcDbEntity
  8
Visible (ISO)
100
AcDbEllipse
 10
1992.855265965508
 20
272.8377392644348
 30
0.0
 11
10.00000000000003
 21
-0.0000000000054567
 31
0.0
210
0.0
220
0.0
230
1.0
 40
0.8910065241883714
 41
5.161206174087865
 42
5.712195065837878
  0
ELLIPSE
  5
9533
330
8C55
100
AcDbEntity
  8
Visible (ISO)
100
AcDbEllipse
 10
2014.15702296313
 20
269.4129204262886
 30
0.0
 11
9.999999999999946
 21
-0.0000000000063879
 31
0.0
210
0.0
220
0.0
230
1.0
 40
0.8910065241883712
 41
1.618187792539609
 42
2.570602412248346
  0
ELLIPSE
  5
9534
330
8C55
100
AcDbEntity
  8
Visible (ISO)
100
AcDbEllipse
 10
2021.479104156108
 20
287.5624958730101
 30
0.0
 11
10.00000000000012
 21
-0.0000000000054564
 31
0.0
210
0.0
220
0.0
230
1.0
 40
0.8910065241883716
 41
4.759780446129174
 42
5.31076933787919
  0
ELLIPSE
  5
9535
330
8C55
100
AcDbEntity
  8
Visible (ISO)
100
AcDbEllipse
 10
2129.008870296589
 20
202.7972131894427
 30
0.0
 11
-10.00000000000669
 21
-0.0000000000006529
 31
0.0
210
0.0
220
0.0
230
1.0
 40
0.8910065241883714
 41
0.0
 42
0.0747815818952304
  0
ELLIPSE
  5
9536
330
8C55
100
AcDbEntity
  8
Visible (ISO)
100
AcDbEllipse
 10
2115.029194491942
 20
217.5219697980179
 30
0.0
 11
9.999999999999527
 21
-0.0000000000054554
 31
0.0
210
0.0
220
0.0
230
1.0
 40
0.8910065241883712
 41
0.2840430736902935
 42
0.4762073098549511
  0
ELLIPSE
  5
9537
330
8C55
100
AcDbEntity
  8
Visible (ISO)
100
AcDbEllipse
 10
2129.00887029658
 20
232.2467264065914
 30
0.0
 11
-10.00000000000024
 21
-0.0000000000004313
 31
0.0
210
0.0
220
0.0
230
1.0
 40
0.8910065241883714
 41
0.0
 42
0.4762073098541837
  0
ELLIPSE
  5
9538
330
8C55
100
AcDbEntity
  8
Visible (ISO)
100
AcDbEllipse
 10
2109.683295786437
 20
240.9339962914251
 30
0.0
 11
9.99999999999996
 21
-0.0000000000054672
 31
0.0
210
0.0
220
0.0
230
1.0
 40
0.8910065241883716
 41
0.2156316701728915
 42
0.8776330378135659
  0
ELLIPSE
  5
9539
330
8C55
100
AcDbEntity
  8
Visible (ISO)
100
AcDbEllipse
 10
2116.094440132017
 20
259.3551462547899
 30
0.0
 11
-9.999999999999978
 21
0.0000000000054522
 31
0.0
210
0.0
220
0.0
230
1.0
 40
0.8910065241883712
 41
0.3266441460637067
 42
0.8776330378135648
  0
ELLIPSE
  5
953A
330
8C55
100
AcDbEntity
  8
Visible (ISO)
100
AcDbEllipse
 10
2093.647484110598
 20
262.8541803308331
 30
0.0
 11
9.999999999999936
 21
-0.000000000005454
 31
0.0
210
0.0
220
0.0
230
1.0
 40
0.8910065241883714
 41
0.3266441460637068
 42
0.83714973800123
  0
ELLIPSE
  5
953B
330
8C55
100
AcDbEntity
  8
Visible (ISO)
100
AcDbEllipse
 10
2068.909111001542
 20
275.5801648929779
 30
0.0
 11
9.999999999999934
 21
-0.0000000000054571
 31
0.0
210
0.0
220
0.0
230
1.0
 40
0.8910065241883714
 41
1.257245364393248
 42
1.767750956330768
  0
ELLIPSE
  5
953C
330
8C55
100
AcDbEntity
  8
Visible (ISO)
100
AcDbEllipse
 10
2054.284701217271
 20
291.1514887123854
 30
0.0
 11
9.999999999999946
 21
-0.0000000000054567
 31
0.0
210
0.0
220
0.0
230
1.0
 40
0.8910065241883714
 41
4.358354718170517
 42
4.90934360992056
  0
ELLIPSE
  5
953D
330
8C55
100
AcDbEntity
  8
Visible (ISO)
100
AcDbEllipse
 10
2039.58559659802
 20
276.9938549483055
 30
0.0
 11
9.999999999999991
 21
-0.0000000000063706
 31
0.0
210
0.0
220
0.0
230
1.0
 40
0.8910065241883714
 41
1.216762064580839
 42
2.169176684289611
  0
LINE
  5
953E
330
8C55
100
AcDbEntity
  8
Visible (ISO)
100
AcDbLine
 10
2119.008870296582
 20
237.2406219037262
 30
0.0
 11
2119.00887029658
 21
232.2467264065914
 31
0.0
  0
LINE
  5
953F
330
8C55
100
AcDbEntity
  8
Visible (ISO)
100
AcDbLine
 10
2119.008870296585
 20
207.7911086865775
 30
0.0
 11
2119.008870296583
 21
202.7972131894427
 31
0.0
  0
LINE
  5
9540
330
8C55
100
AcDbEntity
  8
Visible (ISO)
100
AcDbLine
 10
1980.47850614065
 20
243.4394456479827
 30
0.0
 11
1973.272238234319
 21
236.1268209677924
 31
0.0
  0
LINE
  5
9541
330
8C55
100
AcDbEntity
  8
Visible (ISO)
100
AcDbLine
 10
1973.272238234321
 20
241.1207164649282
 30
0.0
 11
1980.478506140651
 21
248.4333411451176
 31
0.0
  0
LINE
  5
9542
330
8C55
100
AcDbEntity
  8
Visible (ISO)
100
AcDbLine
 10
1982.820682569896
 20
252.8086064075783
 30
0.0
 11
1984.21776453276
 21
260.0793252972022
 31
0.0
  0
LINE
  5
9543
330
8C55
100
AcDbEntity
  8
Visible (ISO)
100
AcDbLine
 10
1989.735346277831
 20
266.6033448176746
 30
0.0
 11
1997.194267721428
 21
269.8040138959282
 31
0.0
  0
LINE
  5
9544
330
8C55
100
AcDbEntity
  8
Visible (ISO)
100
AcDbLine
 10
2001.268927930619
 20
273.016052170247
 30
0.0
 11
2005.743360998026
 21
279.2223985147471
 31
0.0
  0
LINE
  5
9545
330
8C55
100
AcDbEntity
  8
Visible (ISO)
100
AcDbLine
 10
2013.683285683957
 20
283.3068772527918
 30
0.0
 11
2021.952841435286
 21
283.6563300407766
 31
0.0
  0
LINE
  5
9546
330
8C55
100
AcDbEntity
  8
Visible (ISO)
100
AcDbLine
 10
2027.112154003501
 20
285.1944584202852
 30
0.0
 11
2033.95254675063
 21
289.3496833953
 31
0.0
  0
LINE
  5
9547
330
8C55
100
AcDbEntity
  8
Visible (ISO)
100
AcDbLine
 10
2043.052443424452
 20
290.3452288792164
 30
0.0
 11
2050.817854390843
 21
287.7879057757441
 31
0.0
  0
LINE
  5
9548
330
8C55
100
AcDbEntity
  8
Visible (ISO)
100
AcDbLine
 10
2056.241538700695
 20
287.4075767785694
 30
0.0
 11
2066.952273518124
 21
289.3118678210636
 31
0.0
  0
LINE
  5
9549
330
8C55
100
AcDbEntity
  8
Visible (ISO)
100
AcDbLine
 10
2103.11872866576
 20
270.7070166512891
 30
0.0
 11
2106.623195576859
 21
261.4901009286037
 31
0.0
  0
LINE
  5
954A
330
8C55
100
AcDbEntity
  8
Visible (ISO)
100
AcDbLine
 10
2109.704703457467
 20
257.4951646633186
 30
0.0
 11
2116.073032460993
 21
252.7817688771662
 31
0.0
  0
LINE
  5
954B
330
8C55
100
AcDbEntity
  8
Visible (ISO)
100
AcDbLine
 10
2119.655347389744
 20
245.2622038727783
 30
0.0
 11
2119.036818693276
 21
237.9063098195089
 31
0.0
  0
LINE
  5
954C
330
8C55
100
AcDbEntity
  8
Visible (ISO)
100
AcDbLine
 10
2120.121471052303
 20
233.1561431656815
 30
0.0
 11
2123.916593736225
 21
226.6003440331975
 31
0.0
  0
LINE
  5
954D
330
8C55
100
AcDbEntity
  8
Visible (ISO)
100
AcDbLine
 10
2123.916593736225
 20
218.4313865571072
 30
0.0
 11
2120.121471052305
 21
211.8755874246232
 31
0.0
  0
LINE
  5
954E
330
8C55
100
AcDbEntity
  8
Visible (ISO)
100
AcDbLine
 10
2119.036818693281
 20
207.1254207707958
 30
0.0
 11
2119.655347389751
 21
199.7695267175264
 31
0.0
  0
LINE
  5
954F
330
8C55
100
AcDbEntity
  8
Visible (ISO)
100
AcDbLine
 10
2116.073032461002
 20
192.2499617131385
 30
0.0
 11
2109.704703457477
 21
187.5365659269861
 31
0.0
  0
LINE
  5
9550
330
8C55
100
AcDbEntity
  8
Visible (ISO)
100
AcDbLine
 10
2106.62319557687
 20
183.541629661701
 30
0.0
 11
2103.118728665775
 21
174.3247139390156
 31
0.0
  0
LINE
  5
9551
330
8C55
100
AcDbEntity
  8
Visible (ISO)
100
AcDbLine
 10
1984.217764532757
 20
255.0854298000673
 30
0.0
 11
1982.820682569893
 21
247.8147109104435
 31
0.0
  0
LINE
  5
9552
330
8C55
100
AcDbEntity
  8
Visible (ISO)
100
AcDbLine
 10
2005.743360998023
 20
274.2285030176123
 30
0.0
 11
2001.268927930616
 21
268.0221566731121
 31
0.0
  0
LINE
  5
9553
330
8C55
100
AcDbEntity
  8
Visible (ISO)
100
AcDbLine
 10
2033.952546750627
 20
284.3557878981652
 30
0.0
 11
2027.112154003499
 21
280.2005629231504
 31
0.0
  0
LINE
  5
9554
330
8C55
100
AcDbEntity
  8
Visible (ISO)
100
AcDbLine
 10
2119.451710127431
 20
197.1974010355357
 30
0.0
 11
2119.036818693278
 21
202.1315252736609
 31
0.0
  0
LINE
  5
9555
330
8C55
100
AcDbEntity
  8
Visible (ISO)
100
AcDbLine
 10
2123.916593736222
 20
221.6064485360626
 30
0.0
 11
2120.121471052299
 21
228.1622476685466
 31
0.0
  0
LINE
  5
9556
330
8C55
100
AcDbEntity
  8
Visible (ISO)
100
AcDbLine
 10
2116.073032460991
 20
247.7878733800304
 30
0.0
 11
2109.704703457464
 21
252.5012691661837
 31
0.0
  0
LINE
  5
9557
330
8C55
100
AcDbEntity
  8
Visible (ISO)
100
AcDbLine
 10
2106.623195576858
 20
256.4962054314679
 30
0.0
 11
2103.118728665757
 21
265.7131211541533
 31
0.0
  0
LINE
  5
9558
330
8C55
100
AcDbEntity
  8
Visible (ISO)
100
AcDbLine
 10
2066.952273518122
 20
284.3179723239296
 30
0.0
 11
2056.241538700692
 21
282.4136812814346
 31
0.0
  0
LINE
  5
9559
330
8C55
100
AcDbEntity
  8
Visible (ISO)
100
AcDbLine
 10
2050.81785439084
 20
282.7940102786102
 30
0.0
 11
2043.052443424449
 21
285.3513333820807
 31
0.0
  0
LINE
  5
955A
330
8C55
100
AcDbEntity
  8
Visible (ISO)
100
AcDbLine
 10
2021.952841435283
 20
278.6624345436408
 30
0.0
 11
2013.683285683954
 21
278.312981755657
 31
0.0
  0
LINE
  5
955B
330
8C55
100
AcDbEntity
  8
Visible (ISO)
100
AcDbLine
 10
1997.194267721425
 20
264.8101183987934
 30
0.0
 11
1989.735346277829
 21
261.6094493205388
 31
0.0
  0
ELLIPSE
  5
955C
330
8C55
100
AcDbEntity
  8
Visible (ISO)
100
AcDbEllipse
 10
2047.781080139408
 20
222.5158652951528
 30
0.0
 11
-78.49999999999937
 21
0.0000000000355438
 31
0.0
210
0.0
220
0.0
230
1.0
 40
0.8910065241883714
 41
3.978742391590899
 42
4.398838017982925
  0
ELLIPSE
  5
955D
330
8C55
100
AcDbEntity
  8
Visible (ISO)
100
AcDbEllipse
 10
2047.781080139408
 20
222.5158652951528
 30
0.0
 11
78.49999999999981
 21
-0.0000000000428463
 31
0.0
210
0.0
220
0.0
230
1.0
 40
0.8910065241883714
 41
5.025939942787603
 42
5.446035569179595
  0
ELLIPSE
  5
955E
330
8C55
100
AcDbEntity
  8
Visible (ISO)
100
AcDbEllipse
 10
2047.781080139408
 20
222.5158652951528
 30
0.0
 11
-78.49999999999972
 21
0.000000000042838
 31
0.0
210
0.0
220
0.0
230
1.0
 40
0.8910065241883714
 41
6.073137493984194
 42
6.493233120376189
  0
ELLIPSE
  5
955F
330
8C55
100
AcDbEntity
  8
Visible (ISO)
100
AcDbEllipse
 10
2047.781080139408
 20
222.5158652951528
 30
0.0
 11
-99.49999999999961
 21
0.000000000000004
 31
0.0
210
0.0
220
0.0
230
1.0
 40
0.8910065241883714
 41
0.0
 42
6.283185307179586
  0
ELLIPSE
  5
9560
330
8C55
100
AcDbEntity
  8
Visible (ISO)
100
AcDbEllipse
 10
2047.7810801394
 20
217.5219697980179
 30
0.0
 11
-78.49999999999507
 21
0.0000000000428574
 31
0.0
210
0.0
220
0.0
230
1.0
 40
0.8910065241883712
 41
6.073137493984189
 42
6.110819453208415
  0
ELLIPSE
  5
9561
330
8C55
100
AcDbEntity
  8
Visible (ISO)
100
AcDbEllipse
 10
2047.781080139405
 20
217.5219697980179
 30
0.0
 11
-78.49999999999956
 21
0.0000000000354994
 31
0.0
210
0.0
220
0.0
230
1.0
 40
0.8910065241883714
 41
3.978742391590905
 42
4.075626544158886
  0
ELLIPSE
  5
9562
330
8C55
100
AcDbEntity
  8
Visible (ISO)
100
AcDbEllipse
 10
2047.781080139408
 20
217.5219697980252
 30
0.0
 11
-78.49999999999096
 21
0.0000000000428296
 31
0.0
210
0.0
220
0.0
230
1.0
 40
0.8910065241883714
 41
4.333202672688891
 42
4.398838017982996
  0
ELLIPSE
  5
9563
330
8C55
100
AcDbEntity
  8
Visible (ISO)
100
AcDbEllipse
 10
2047.781080139405
 20
217.5219697980179
 30
0.0
 11
-99.49999999999961
 21
0.0000000000000079
 31
0.0
210
0.0
220
0.0
230
1.0
 40
0.8910065241883714
 41
0.0
 42
3.141592653589473
  0
ELLIPSE
  5
9564
330
8C55
100
AcDbEntity
  8
Visible (ISO)
100
AcDbEllipse
 10
2047.781080139403
 20
214.3440362998404
 30
0.0
 11
-20.9999999999999
 21
0.0
 31
0.0
210
0.0
220
0.0
230
1.0
 40
0.8910065241883716
 41
0.0
 42
2.09439510239313
  0
ELLIPSE
  5
9565
330
8C55
100
AcDbEntity
  8
Visible (ISO)
100
AcDbEllipse
 10
2047.781080139403
 20
214.3440362998404
 30
0.0
 11
-20.99999999999988
 21
0.0000000000095007
 31
0.0
210
0.0
220
0.0
230
1.0
 40
0.8910065241883716
 41
4.188790204786917
 42
6.283185307180104
  0
ELLIPSE
  5
9566
330
8C55
100
AcDbEntity
  8
Visible (ISO)
100
AcDbEllipse
 10
2047.781080139403
 20
214.3440362998404
 30
0.0
 11
20.99999999999989
 21
-0.0000000000114533
 31
0.0
210
0.0
220
0.0
230
1.0
 40
0.8910065241883716
 41
5.235987755983577
 42
7.330382858376785
  0
ELLIPSE
  5
9567
330
8C55
100
AcDbEntity
  8
Visible (ISO)
100
AcDbEllipse
 10
2047.781080139385
 20
181.2027298188537
 30
0.0
 11
-20.9999999999999
 21
0.0000000000000059
 31
0.0
210
0.0
220
0.0
230
1.0
 40
0.8910065241883712
 41
0.0
 42
2.583003932972669
  0
ELLIPSE
  5
9568
330
8C55
100
AcDbEntity
  8
Visible (ISO)
100
AcDbEllipse
 10
2047.781080139372
 20
156.8915385578008
 30
0.0
 11
43.49999999999979
 21
-0.0000000000197425
 31
0.0
210
0.0
220
0.0
230
1.0
 40
0.8910065241883714
 41
3.748742554102529
 42
5.676035406667875
  0
ELLIPSE
  5
9569
330
8C55
100
AcDbEntity
  8
Visible (ISO)
100
AcDbEllipse
 10
2047.781080139372
 20
156.8915385578008
 30
0.0
 11
-43.49999999999982
 21
0.0000000000237338
 31
0.0
210
0.0
220
0.0
230
1.0
 40
0.8910065241883712
 41
5.216190964760412
 42
6.04311571523324
  0
ELLIPSE
  5
956A
330
8C55
100
AcDbEntity
  8
Visible (ISO)
100
AcDbEllipse
 10
2047.781080139367
 20
146.2681608638955
 30
0.0
 11
43.49999999999981
 21
-0.000000000023738
 31
0.0
210
0.0
220
0.0
230
1.0
 40
0.8910065241883714
 41
3.375531058598417
 42
6.049246902172283
  0
ELLIPSE
  5
956B
330
8C55
100
AcDbEntity
  8
Visible (ISO)
100
AcDbEllipse
 10
2047.781080139377
 20
163.7711829297937
 30
0.0
 11
-14.99999999999993
 21
-0.000000000000003
 31
0.0
210
0.0
220
0.0
230
1.0
 40
0.8910065241883714
 41
0.0
 42
0.7746834650812362
  0
ELLIPSE
  5
956C
330
8C55
100
AcDbEntity
  8
Visible (ISO)
100
AcDbEllipse
 10
2047.781080139377
 20
163.7711829297937
 30
0.0
 11
14.99999999999991
 21
-0.0000000000081796
 31
0.0
210
0.0
220
0.0
230
1.0
 40
0.8910065241883717
 41
5.738603346215857
 42
6.283185307180251
  0
LINE
  5
956D
330
8C55
100
AcDbEntity
  8
Visible (ISO)
100
AcDbLine
 10
2026.781080139385
 20
181.2027298188528
 30
0.0
 11
2026.781080139398
 21
203.5327093082438
 31
0.0
  0
LINE
  5
956E
330
8C55
100
AcDbEntity
  8
Visible (ISO)
100
AcDbLine
 10
2068.781080139396
 20
199.4058924952138
 30
0.0
 11
2068.781080139403
 21
214.3440362998414
 31
0.0
  0
LINE
  5
956F
330
8C55
100
AcDbEntity
  8
Visible (ISO)
100
AcDbLine
 10
2032.781080139376
 20
163.7711829297928
 30
0.0
 11
2032.781080139379
 21
168.1076617683389
 31
0.0
  0
LINE
  5
9570
330
8C55
100
AcDbEntity
  8
Visible (ISO)
100
AcDbLine
 10
2062.781080139376
 20
163.7711829297937
 30
0.0
 11
2062.781080139378
 21
168.1076617683398
 31
0.0
  0
LINE
  5
9571
330
8C55
100
AcDbEntity
  8
Visible (ISO)
100
AcDbLine
 10
1948.281080139406
 20
217.5219697980143
 30
0.0
 11
1948.281080139409
 21
222.5158652951482
 31
0.0
  0
LINE
  5
9572
330
8C55
100
AcDbEntity
  8
Visible (ISO)
100
AcDbLine
 10
2147.281080139406
 20
217.5219697980216
 30
0.0
 11
2147.281080139408
 21
222.5158652951564
 31
0.0
  0
LINE
  5
9573
330
8C55
100
AcDbEntity
  8
Visible (ISO)
100
AcDbLine
 10
2066.952273518142
 20
155.7198627692401
 30
0.0
 11
2056.241538700713
 21
157.6241538117352
 31
0.0
  0
LINE
  5
9574
330
8C55
100
AcDbEntity
  8
Visible (ISO)
100
AcDbLine
 10
2050.817854390862
 20
157.2438248145596
 30
0.0
 11
2043.052443424471
 21
154.6865017110891
 31
0.0
  0
LINE
  5
9575
330
8C55
100
AcDbEntity
  8
Visible (ISO)
100
AcDbLine
 10
2033.952546750648
 20
155.6820471950046
 30
0.0
 11
2027.112154003521
 21
159.8372721700194
 31
0.0
  0
LINE
  5
9576
330
8C55
100
AcDbEntity
  8
Visible (ISO)
100
AcDbLine
 10
2021.952841435303
 20
161.3754005495289
 30
0.0
 11
2013.683285683974
 21
161.7248533375119
 31
0.0
  0
LINE
  5
9577
330
8C55
100
AcDbEntity
  8
Visible (ISO)
100
AcDbLine
 10
2005.743360998041
 20
165.8093320755584
 30
0.0
 11
2001.268927930634
 21
172.0156784200577
 31
0.0
  0
LINE
  5
9578
330
8C55
100
AcDbEntity
  8
Visible (ISO)
100
AcDbLine
 10
1997.194267721441
 20
175.2277166943755
 30
0.0
 11
1989.735346277843
 21
178.4283857726301
 31
0.0
  0
LINE
  5
9579
330
8C55
100
AcDbEntity
  8
Visible (ISO)
100
AcDbLine
 10
1984.21776453277
 20
184.9524052931025
 30
0.0
 11
1982.820682569905
 21
192.2231241827263
 31
0.0
  0
LINE
  5
957A
330
8C55
100
AcDbEntity
  8
Visible (ISO)
100
AcDbLine
 10
1980.47850614066
 20
196.5983894451861
 30
0.0
 11
1973.272238234328
 21
203.9110141253773
 31
0.0
  0
ELLIPSE
  5
957B
330
8C55
100
AcDbEntity
  8
Visible (ISO)
100
AcDbEllipse
 10
2047.781080139402
 20
211.8429312771346
 30
0.0
 11
-72.80105474766132
 21
34.83431963206052
 31
0.0
210
0.0
220
0.0
230
0.9999999999999998
 40
0.8429676100197848
 41
0.2620732874311296
 42
0.3739250198235329
  0
ELLIPSE
  5
957C
330
8C55
100
AcDbEntity
  8
Visible (ISO)
100
AcDbEllipse
 10
2047.781080139402
 20
211.8429312771346
 30
0.0
 11
-19.47544139746351
 21
9.318735188194521
 31
0.0
210
0.0
220
0.0
230
1.0
 40
0.842967610019785
 41
0.3833897597685004
 42
0.8528230501766401
  0
LINE
  5
957D
330
8C55
100
AcDbEntity
  8
Visible (ISO)
100
AcDbLine
 10
2029.052759339077
 20
205.6089167840369
 30
0.0
 11
2029.052759339076
 21
203.2621517722315
 31
0.0
  0
LINE
  5
957E
330
8C55
100
AcDbEntity
  8
Visible (ISO)
100
AcDbLine
 10
2029.052759339076
 20
203.2621517722306
 30
0.0
 11
1970.500434066562
 21
210.2357477165265
 31
0.0
  0
LINE
  5
957F
330
8C55
100
AcDbEntity
  8
Visible (ISO)
100
AcDbLine
 10
2028.911039483656
 20
222.5549196122934
 30
0.0
 11
1969.858041184293
 21
229.5881458338359
 31
0.0
  0
LINE
  5
9580
330
8C55
100
AcDbEntity
  8
Visible (ISO)
100
AcDbLine
 10
1970.068495490281
 20
212.633956716079
 30
0.0
 11
2029.052759339077
 21
205.6089167840369
 31
0.0
  0
LINE
  5
9581
330
8C55
100
AcDbEntity
  8
Visible (ISO)
100
AcDbLine
 10
2094.969840952908
 20
277.01939130433
 30
0.0
 11
2094.969840952907
 21
274.6726262925236
 31
0.0
  0
ELLIPSE
  5
9582
330
8C55
100
AcDbEntity
  8
Visible (ISO)
100
AcDbEllipse
 10
2047.781080139402
 20
211.8429312771346
 30
0.0
 11
-58.93835781486783
 21
-55.05741675579046
 31
0.0
210
0.0
220
0.0
230
1.0
 40
0.9417612203330405
 41
3.34596055972802
 42
3.588593504402803
  0
LINE
  5
9583
330
8C55
100
AcDbEntity
  8
Visible (ISO)
100
AcDbLine
 10
2065.458118371816
 20
224.4451709693299
 30
0.0
 11
2094.969840952908
 21
277.01939130433
 31
0.0
  0
LINE
  5
9584
330
8C55
100
AcDbEntity
  8
Visible (ISO)
100
AcDbLine
 10
2078.515358281002
 20
285.4839532841202
 30
0.0
 11
2049.065608948816
 21
233.0201363738575
 31
0.0
  0
LINE
  5
9585
330
8C55
100
AcDbEntity
  8
Visible (ISO)
100
AcDbLine
 10
2094.969840952907
 20
274.6726262925236
 30
0.0
 11
2066.173965070417
 21
223.373664694283
 31
0.0
  0
ELLIPSE
  5
9586
330
8C55
100
AcDbEntity
  8
Visible (ISO)
100
AcDbEllipse
 10
2047.781080139402
 20
211.8429312771346
 30
0.0
 11
-20.84850849548393
 21
-3.225270791665383
 31
0.0
210
0.0
220
0.0
230
1.0
 40
0.7806708222937026
 41
1.974207155925384
 42
2.443640446333464
  0
ELLIPSE
  5
9587
330
8C55
100
AcDbEntity
  8
Visible (ISO)
100
AcDbEllipse
 10
2047.781080139402
 20
211.8429312771346
 30
0.0
 11
-20.84850849548393
 21
-3.225270791665383
 31
0.0
210
0.0
220
0.0
230
1.0
 40
0.7806708222937026
 41
1.504773865517205
 42
1.974207155925384
  0
LINE
  5
9588
330
8C55
100
AcDbEntity
  8
Visible (ISO)
100
AcDbLine
 10
2048.917999203618
 20
195.3897833460784
 30
0.0
 11
2077.685713088282
 21
157.8459578922135
 31
0.0
  0
LINE
  5
9589
330
8C55
100
AcDbEntity
  8
Visible (ISO)
100
AcDbLine
 10
2094.262197791298
 20
166.1512989141098
 30
0.0
 11
2065.372481875522
 21
203.8543453258686
 31
0.0
  0
LINE
  5
958A
330
8C55
100
AcDbEntity
  8
Visible (ISO)
100
AcDbLine
 10
2048.917999203617
 20
193.0430183342711
 30
0.0
 11
2048.917999203618
 21
195.3897833460784
 31
0.0
  0
LINE
  5
958B
330
8C55
100
AcDbEntity
  8
Visible (ISO)
100
AcDbLine
 10
2076.273803719768
 20
157.3418307452253
 30
0.0
 11
2048.917999203618
 21
193.0430183342711
 31
0.0
  0
ELLIPSE
  5
958C
330
8C55
100
AcDbEntity
  8
Visible (ISO)
100
AcDbEllipse
 10
2047.78108013936
 20
133.238633521371
 30
0.0
 11
79.99999999999983
 21
-0.0000000000436984
 31
0.0
210
0.0
220
0.0
230
1.0
 40
0.8910065241883714
 41
5.217749490669469
 42
5.77782479689605
  0
LINE
  5
958D
330
8C55
100
AcDbEntity
  8
Visible (ISO)
100
AcDbLine
 10
2009.051246677294
 20
70.86817682818457
 30
0.0
 11
2086.510913601443
 21
70.86817682818457
 31
0.0
  0
ELLIPSE
  5
958E
330
8C55
100
AcDbEntity
  8
Visible (ISO)
100
AcDbEllipse
 10
2047.78108013936
 20
133.238633521371
 30
0.0
 11
79.99999999999983
 21
-0.0000000000362932
 31
0.0
210
0.0
220
0.0
230
1.0
 40
0.8910065241883714
 41
3.646953163874439
 42
4.207028470101034
  0
LINE
  5
958F
330
8C55
100
AcDbEntity
  8
Visible (ISO)
100
AcDbLine
 10
2117.781080139369
 20
106.7657310713226
 30
0.0
 11
2117.781080139369
 21
106.3117405715844
 31
0.0
  0
LINE
  5
9590
330
8C55
100
AcDbEntity
  8
Visible (ISO)
100
AcDbLine
 10
2117.781080139369
 20
106.3117405715844
 30
0.0
 11
2117.781080139364
 21
98.73009922593395
 31
0.0
  0
LINE
  5
9591
330
8C55
100
AcDbEntity
  8
Visible (ISO)
100
AcDbLine
 10
1977.78108013937
 20
106.3117405715844
 30
0.0
 11
1977.78108013937
 21
106.7657310713226
 31
0.0
  0
ELLIPSE
  5
9592
330
8C55
100
AcDbEntity
  8
Visible (ISO)
100
AcDbEllipse
 10
2047.781080139364
 20
140.8202748670215
 30
0.0
 11
-79.99999999999982
 21
0.0000000000436262
 31
0.0
210
0.0
220
0.0
230
1.0
 40
0.8910065241883716
 41
0.5053605102847741
 42
1.065435816511351
  0
LINE
  5
9593
330
8C55
100
AcDbEntity
  8
Visible (ISO)
100
AcDbLine
 10
2086.510913601446
 20
78.44981817383507
 30
0.0
 11
2009.051246677298
 21
78.44981817383507
 31
0.0
  0
ELLIPSE
  5
9594
330
8C55
100
AcDbEntity
  8
Visible (ISO)
100
AcDbEllipse
 10
2047.781080139364
 20
140.8202748670215
 30
0.0
 11
-79.99999999999983
 21
0.0000000000510481
 31
0.0
210
0.0
220
0.0
230
1.0
 40
0.8910065241883712
 41
2.076156837079771
 42
2.636232143306385
  0
LINE
  5
9595
330
8C55
100
AcDbEntity
  8
Visible (ISO)
100
AcDbLine
 10
1977.78108013937
 20
106.3117405715844
 30
0.0
 11
1977.781080139365
 21
98.73009922593395
 31
0.0
  0
LINE
  5
9596
330
8C55
100
AcDbEntity
  8
Visible (ISO)
100
AcDbLine
 10
2009.051246677298
 20
78.44981817383507
 30
0.0
 11
2009.051246677294
 21
70.86817682818457
 31
0.0
  0
LINE
  5
9597
330
8C55
100
AcDbEntity
  8
Visible (ISO)
100
AcDbLine
 10
2086.510913601446
 20
78.44981817383507
 30
0.0
 11
2086.510913601443
 21
70.86817682818457
 31
0.0
  0
LINE
  5
9598
330
8C55
100
AcDbEntity
  8
Visible (ISO)
100
AcDbLine
 10
2117.781080139361
 20
98.73009922593395
 30
0.0
 11
2117.781080139354
 21
87.12904589462288
 31
0.0
  0
LINE
  5
9599
330
8C55
100
AcDbEntity
  8
Visible (ISO)
100
AcDbLine
 10
2117.781080139354
 20
87.12904589462288
 30
0.0
 11
2108.788764081624
 21
87.12904589462288
 31
0.0
  0
LINE
  5
959A
330
8C55
100
AcDbEntity
  8
Visible (ISO)
100
AcDbLine
 10
1986.773396197083
 20
87.12904589462288
 30
0.0
 11
1977.781080139355
 21
87.12904589462288
 31
0.0
  0
LINE
  5
959B
330
8C55
100
AcDbEntity
  8
Visible (ISO)
100
AcDbLine
 10
1977.781080139355
 20
87.12904589462288
 30
0.0
 11
1977.78108013936
 21
98.73009922593395
 31
0.0
  0
ELLIPSE
  5
959C
330
8C55
100
AcDbEntity
  8
Visible (ISO)
100
AcDbEllipse
 10
2092.133425207733
 20
79.55978010717685
 30
0.0
 11
8.999999999999976
 21
0.0000000000002453
 31
0.0
210
0.0
220
0.0
230
1.0
 40
0.8910065241883714
 41
4.342434519012275
 42
6.2831853071793
  0
LINE
  5
959D
330
8C55
100
AcDbEntity
  8
Visible (ISO)
100
AcDbLine
 10
2101.133425207734
 20
79.55978010717683
 30
0.0
 11
2101.133425207734
 21
80.12442543170676
 31
0.0
  0
ELLIPSE
  5
959E
330
8C55
100
AcDbEntity
  8
Visible (ISO)
100
AcDbEllipse
 10
2003.428735070991
 20
79.55978010717685
 30
0.0
 11
-8.999999999999957
 21
-0.0000000000005144
 31
0.0
210
0.0
220
0.0
230
1.0
 40
0.8910065241883714
 41
0.0
 42
1.940750788166992
  0
LINE
  5
959F
330
8C55
100
AcDbEntity
  8
Visible (ISO)
100
AcDbLine
 10
1994.428735070992
 20
80.12442543170676
 30
0.0
 11
1994.428735070992
 21
79.55978010717593
 31
0.0
  0
LINE
  5
95A0
330
8C55
100
AcDbEntity
  8
Visible (ISO)
100
AcDbLine
 10
2155.781080139352
 20
81.98119525354616
 30
0.0
 11
2155.781080139352
 21
159.4811952535461
 31
0.0
  0
LINE
  5
95A1
330
8C55
100
AcDbEntity
  8
Visible (ISO)
100
AcDbLine
 10
2152.931080139353
 20
81.98119525354616
 30
0.0
 11
2152.931080139353
 21
159.4811952535461
 31
0.0
  0
LINE
  5
95A2
330
8C55
100
AcDbEntity
  8
Visible (ISO)
100
AcDbLine
 10
2150.383288499488
 20
88.98119525354616
 30
0.0
 11
2150.383288499488
 21
152.4811952535461
 31
0.0
  0
LINE
  5
95A3
330
8C55
100
AcDbEntity
  8
Visible (ISO)
100
AcDbLine
 10
2152.931080139353
 20
159.4811952535461
 30
0.0
 11
2155.781080139352
 21
159.4811952535461
 31
0.0
  0
LINE
  5
95A4
330
8C55
100
AcDbEntity
  8
Visible (ISO)
100
AcDbLine
 10
2152.931080139353
 20
81.98119525354616
 30
0.0
 11
2155.781080139352
 21
81.98119525354616
 31
0.0
  0
LINE
  5
95A5
330
8C55
100
AcDbEntity
  8
Visible (ISO)
100
AcDbLine
 10
2150.383288499488
 20
152.4811952535461
 30
0.0
 11
2152.931080139353
 21
159.4811952535461
 31
0.0
  0
LINE
  5
95A6
330
8C55
100
AcDbEntity
  8
Visible (ISO)
100
AcDbLine
 10
2150.383288499488
 20
88.98119525354616
 30
0.0
 11
2152.931080139353
 21
81.98119525354616
 31
0.0
  0
LINE
  5
95A7
330
8C55
100
AcDbEntity
  8
Visible (ISO)
100
AcDbLine
 10
2117.781080139353
 20
152.4811952535461
 30
0.0
 11
2150.383288499488
 21
152.4811952535461
 31
0.0
  0
LINE
  5
95A8
330
8C55
100
AcDbEntity
  8
0
  6
CENTER
100
AcDbLine
 10
1912.252323983599
 20
120.7311952535461
 30
0.0
 11
2183.309836295206
 21
120.7311952535461
 31
0.0
  0
LINE
  5
95A9
330
8C55
100
AcDbEntity
  8
Visible (ISO)
100
AcDbLine
 10
2117.781080139353
 20
88.98119525354616
 30
0.0
 11
2150.383288499488
 21
88.98119525354616
 31
0.0
  0
LINE
  5
95AA
330
8C55
100
AcDbEntity
  8
Visible (ISO)
100
AcDbLine
 10
1939.781080139352
 20
81.98119525354616
 30
0.0
 11
1939.781080139352
 21
159.4811952535461
 31
0.0
  0
LINE
  5
95AB
330
8C55
100
AcDbEntity
  8
Visible (ISO)
100
AcDbLine
 10
1942.631080139353
 20
81.98119525354616
 30
0.0
 11
1942.631080139353
 21
159.4811952535461
 31
0.0
  0
LINE
  5
95AC
330
8C55
100
AcDbEntity
  8
Visible (ISO)
100
AcDbLine
 10
1945.178871779217
 20
88.98119525354616
 30
0.0
 11
1945.178871779217
 21
152.4811952535461
 31
0.0
  0
LINE
  5
95AD
330
8C55
100
AcDbEntity
  8
Visible (ISO)
100
AcDbLine
 10
1939.781080139352
 20
159.4811952535461
 30
0.0
 11
1942.631080139353
 21
159.4811952535461
 31
0.0
  0
LINE
  5
95AE
330
8C55
100
AcDbEntity
  8
Visible (ISO)
100
AcDbLine
 10
1939.781080139352
 20
81.98119525354616
 30
0.0
 11
1942.631080139353
 21
81.98119525354616
 31
0.0
  0
LINE
  5
95AF
330
8C55
100
AcDbEntity
  8
Visible (ISO)
100
AcDbLine
 10
1945.178871779217
 20
88.98119525354616
 30
0.0
 11
1942.631080139353
 21
81.98119525354616
 31
0.0
  0
LINE
  5
95B0
330
8C55
100
AcDbEntity
  8
Visible (ISO)
100
AcDbLine
 10
1945.178871779217
 20
152.4811952535461
 30
0.0
 11
1942.631080139353
 21
159.4811952535461
 31
0.0
  0
LINE
  5
95B1
330
8C55
100
AcDbEntity
  8
Visible (ISO)
100
AcDbLine
 10
1945.178871779217
 20
152.4811952535461
 30
0.0
 11
1977.781080139352
 21
152.4811952535461
 31
0.0
  0
LINE
  5
95B2
330
8C55
100
AcDbEntity
  8
Visible (ISO)
100
AcDbLine
 10
1945.178871779217
 20
88.98119525354616
 30
0.0
 11
1977.781080139352
 21
88.98119525354616
 31
0.0
  0
ELLIPSE
  5
95B3
330
8C55
100
AcDbEntity
  8
Visible (ISO)
100
AcDbEllipse
 10
2047.781080139367
 20
145.8141703641564
 30
0.0
 11
79.99999999999957
 21
-0.0000000000363154
 31
0.0
210
0.0
220
0.0
230
1.0
 40
0.8910065241883712
 41
3.646953163874435
 42
4.207028470101032
  0
SPLINE
  5
95B4
330
8C55
100
AcDbEntity
  8
Visible (ISO)
100
AcDbSpline
210
0.0
220
0.0
230
1.0
 70
     8
 71
     3
 72
     8
 73
     4
 74
     0
 42
0.0000000001
 43
0.0000000001
 40
-0.1437727769607307
 40
-0.1437727769607307
 40
-0.1437727769607307
 40
-0.1437727769607307
 40
0.0
 40
0.0
 40
0.0
 40
0.0
 10
2009.051246677301
 20
83.44371367096995
 30
0.0
 10
2009.137321185197
 20
83.89208878625199
 30
0.0
 10
2009.223676754011
 20
84.34043326400354
 30
0.0
 10
2009.310312016033
 20
84.788710694898
 30
0.0
  0
ELLIPSE
  5
95B5
330
8C55
100
AcDbEntity
  8
Visible (ISO)
100
AcDbEllipse
 10
2047.781080139367
 20
146.2681608638955
 30
0.0
 11
-78.99999999999969
 21
0.0000000000430711
 31
0.0
210
0.0
220
0.0
230
1.0
 40
0.8910065241883714
 41
0.5086192596839237
 42
1.062177067112203
  0
SPLINE
  5
95B6
330
8C55
100
AcDbEntity
  8
Visible (ISO)
100
AcDbSpline
210
0.0
220
0.0
230
1.0
 70
     8
 71
     3
 72
     8
 73
     4
 74
     0
 42
0.0000000001
 43
0.0000000001
 40
-0.143772776960857
 40
-0.143772776960857
 40
-0.143772776960857
 40
-0.143772776960857
 40
0.0
 40
0.0
 40
0.0
 40
0.0
 10
1977.781080139372
 20
111.3056360687193
 30
0.0
 10
1978.114445274984
 20
111.5336736213327
 30
0.0
 10
1978.447787631717
 20
111.7619512596626
 30
0.0
 10
1978.781080139371
 20
111.9904554754599
 30
0.0
  0
LINE
  5
95B7
330
8C55
100
AcDbEntity
  8
Visible (ISO)
100
AcDbLine
 10
2009.051246677301
 20
83.44371367096995
 30
0.0
 11
2086.510913601448
 21
83.44371367096995
 31
0.0
  0
SPLINE
  5
95B8
330
8C55
100
AcDbEntity
  8
Visible (ISO)
100
AcDbSpline
210
0.0
220
0.0
230
1.0
 70
     8
 71
     3
 72
     8
 73
     4
 74
     0
 42
0.0000000001
 43
0.0000000001
 40
-0.143772776960857
 40
-0.143772776960857
 40
-0.143772776960857
 40
-0.143772776960857
 40
0.0
 40
0.0
 40
0.0
 40
0.0
 10
2086.510913601448
 20
83.44371367096995
 30
0.0
 10
2086.424839093553
 20
83.89208878625018
 30
0.0
 10
2086.338483524739
 20
84.34043326400354
 30
0.0
 10
2086.251848262717
 20
84.788710694898
 30
0.0
  0
LINE
  5
95B9
330
8C55
100
AcDbEntity
  8
Visible (ISO)
100
AcDbLine
 10
2086.251848262717
 20
84.78871069489798
 30
0.0
 11
2009.310312016033
 21
84.78871069489798
 31
0.0
  0
LINE
  5
95BA
330
8C55
100
AcDbEntity
  8
Visible (ISO)
100
AcDbLine
 10
2117.781080139371
 20
111.3056360687193
 30
0.0
 11
2117.781080139364
 21
154.5167191923143
 31
0.0
  0
LINE
  5
95BB
330
8C55
100
AcDbEntity
  8
Visible (ISO)
100
AcDbLine
 10
2116.781080139365
 20
153.6469928592993
 30
0.0
 11
2116.78108013937
 21
111.9904554754599
 31
0.0
  0
SPLINE
  5
95BC
330
8C55
100
AcDbEntity
  8
Visible (ISO)
100
AcDbSpline
210
0.0
220
0.0
230
1.0
 70
     8
 71
     3
 72
     8
 73
     4
 74
     0
 42
0.0000000001
 43
0.0000000001
 40
-0.1437727732805682
 40
-0.1437727732805682
 40
-0.1437727732805682
 40
-0.1437727732805682
 40
0.0
 40
0.0
 40
0.0
 40
0.0
 10
2116.78108013937
 20
111.9904554754599
 30
0.0
 10
2117.11437264703
 20
111.7619512596608
 30
0.0
 10
2117.447715003764
 20
111.533673621329
 30
0.0
 10
2117.781080139371
 20
111.3056360687193
 30
0.0
  0
ELLIPSE
  5
95BD
330
8C55
100
AcDbEntity
  8
Visible (ISO)
100
AcDbEllipse
 10
2047.781080139367
 20
145.8141703641564
 30
0.0
 11
79.99999999999957
 21
-0.0000000000437372
 31
0.0
210
0.0
220
0.0
230
1.0
 40
0.8910065241883716
 41
5.217749490669453
 42
5.777824796896038
  0
ELLIPSE
  5
95BE
330
8C55
100
AcDbEntity
  8
Visible (ISO)
100
AcDbEllipse
 10
2047.781080139367
 20
146.2681608638955
 30
0.0
 11
-78.9999999999997
 21
0.0000000000504152
 31
0.0
210
0.0
220
0.0
230
1.0
 40
0.8910065241883714
 41
2.079415586478924
 42
2.632973393907231
  0
ELLIPSE
  5
95BF
330
8C55
100
AcDbEntity
  8
Visible (ISO)
100
AcDbEllipse
 10
2047.781080139367
 20
145.8141703641564
 30
0.0
 11
-79.99999999999937
 21
0.0000000000362932
 31
0.0
210
0.0
220
0.0
230
1.0
 40
0.8910065241883714
 41
3.79039691176095
 42
4.207028470101047
  0
SPLINE
  5
95C0
330
8C55
100
AcDbEntity
  8
Visible (ISO)
100
AcDbSpline
210
0.0
220
0.0
230
1.0
 70
     8
 71
     3
 72
     8
 73
     4
 74
     0
 42
0.0000000001
 43
0.0000000001
 40
-0.1437727769618315
 40
-0.1437727769618315
 40
-0.1437727769618315
 40
-0.1437727769618315
 40
0.0
 40
0.0
 40
0.0
 40
0.0
 10
2086.510913601432
 20
208.1846270573411
 30
0.0
 10
2086.424839093537
 20
208.0389411510883
 30
0.0
 10
2086.338483524722
 20
207.8932651995679
 30
0.0
 10
2086.2518482627
 20
207.7476110328931
 30
0.0
  0
ELLIPSE
  5
95C1
330
8C55
100
AcDbEntity
  8
Visible (ISO)
100
AcDbEllipse
 10
2047.781080139367
 20
146.2681608638946
 30
0.0
 11
79.00000000000009
 21
-0.0000000000431155
 31
0.0
210
0.0
220
0.0
230
1.0
 40
0.8910065241883716
 41
0.6432755055921673
 42
1.062177067112205
  0
LINE
  5
95C2
330
8C55
100
AcDbEntity
  8
Visible (ISO)
100
AcDbLine
 10
2086.510913601432
 20
208.1846270573411
 30
0.0
 11
2068.781080139355
 21
208.1846270573411
 31
0.0
  0
LINE
  5
95C3
330
8C55
100
AcDbEntity
  8
Visible (ISO)
100
AcDbLine
 10
2068.781080139355
 20
207.7476110328931
 30
0.0
 11
2086.2518482627
 21
207.7476110328931
 31
0.0
  0
ELLIPSE
  5
95C4
330
8C55
100
AcDbEntity
  8
Visible (ISO)
100
AcDbEllipse
 10
2047.781080139367
 20
145.8141703641564
 30
0.0
 11
-79.99999999999992
 21
0.0000000000436984
 31
0.0
210
0.0
220
0.0
230
1.0
 40
0.891006524188371
 41
5.274871352580785
 42
5.644117757609009
  0
ELLIPSE
  5
95C5
330
8C55
100
AcDbEntity
  8
Visible (ISO)
100
AcDbEllipse
 10
2047.781080139367
 20
146.2681608638946
 30
0.0
 11
78.99999999999997
 21
-0.000000000050443
 31
0.0
210
0.0
220
0.0
230
1.0
 40
0.8910065241883714
 41
2.128070287528835
 42
2.516202789537597
  0
LINE
  5
95C6
330
8C55
100
AcDbEntity
  8
Visible (ISO)
100
AcDbLine
 10
1977.781080139365
 20
154.5167191923088
 30
0.0
 11
1977.781080139372
 21
111.3056360687193
 31
0.0
  0
LINE
  5
95C7
330
8C55
100
AcDbEntity
  8
Visible (ISO)
100
AcDbLine
 10
1978.781080139371
 20
111.9904554754599
 30
0.0
 11
1978.781080139366
 21
153.6469928592947
 31
0.0
  0
LINE
  5
95C8
330
8C55
100
AcDbEntity
  8
Visible (ISO)
100
AcDbLine
 10
2086.510913601448
 20
78.9038086735751
 30
0.0
 11
2009.051246677298
 21
78.9038086735751
 31
0.0
  0
ELLIPSE
  5
95C9
330
8C55
100
AcDbEntity
  8
Visible (ISO)
100
AcDbEllipse
 10
2047.781080139364
 20
141.2742653667606
 30
0.0
 11
-79.99999999999975
 21
0.000000000051037
 31
0.0
210
0.0
220
0.0
230
1.0
 40
0.8910065241883714
 41
2.076156837079771
 42
2.636232143306385
  0
ELLIPSE
  5
95CA
330
8C55
100
AcDbEntity
  8
Visible (ISO)
100
AcDbEllipse
 10
2047.781080139364
 20
141.2742653667606
 30
0.0
 11
-79.99999999999975
 21
0.0000000000436651
 31
0.0
210
0.0
220
0.0
230
1.0
 40
0.8910065241883716
 41
0.5053605102847705
 42
1.065435816511349
  0
LINE
  5
95CB
330
8C55
100
AcDbEntity
  8
Visible (ISO)
100
AcDbLine
 10
2117.781080139371
 20
111.3056360687193
 30
0.0
 11
2117.781080139369
 21
106.7657310713226
 31
0.0
  0
LINE
  5
95CC
330
8C55
100
AcDbEntity
  8
Visible (ISO)
100
AcDbLine
 10
1977.781080139372
 20
111.3056360687193
 30
0.0
 11
1977.78108013937
 21
106.7657310713226
 31
0.0
  0
LINE
  5
95CD
330
8C55
100
AcDbEntity
  8
Visible (ISO)
100
AcDbLine
 10
2009.051246677301
 20
83.44371367096995
 30
0.0
 11
2009.051246677298
 21
78.9038086735751
 31
0.0
  0
LINE
  5
95CE
330
8C55
100
AcDbEntity
  8
Visible (ISO)
100
AcDbLine
 10
2086.510913601448
 20
83.44371367096995
 30
0.0
 11
2086.510913601446
 21
78.9038086735751
 31
0.0
  0
ELLIPSE
  5
95CF
330
8C55
100
AcDbEntity
  8
Visible (ISO)
100
AcDbEllipse
 10
1308.960937090574
 20
230.2479543601626
 30
0.0
 11
10.0000000000002
 21
-0.0000000000061853
 31
0.0
210
0.0
220
0.0
230
1.0
 40
0.8910065241883712
 41
0.2100478131966339
 42
0.7205534051342524
  0
ELLIPSE
  5
95D0
330
8C55
100
AcDbEntity
  8
Visible (ISO)
100
AcDbEllipse
 10
1316.783483327722
 20
249.3183122556125
 30
0.0
 11
-9.999999999999753
 21
0.0000000000061902
 31
0.0
210
0.0
220
0.0
230
1.0
 40
0.8910065241883714
 41
0.1695645133842163
 42
0.7205534051342877
  0
ELLIPSE
  5
95D1
330
8C55
100
AcDbEntity
  8
Visible (ISO)
100
AcDbEllipse
 10
1160.738712100054
 20
237.2406219037262
 30
0.0
 11
10.00000000000409
 21
-0.000000000000188
 31
0.0
210
0.0
220
0.0
230
1.0
 40
0.8910065241883714
 41
0.0
 42
0.0747815818953468
  0
ELLIPSE
  5
95D2
330
8C55
100
AcDbEntity
  8
Visible (ISO)
100
AcDbEllipse
 10
1174.7183879047
 20
222.5158652951519
 30
0.0
 11
-10.00000000000005
 21
0.0000000000061867
 31
0.0
210
0.0
220
0.0
230
1.0
 40
0.891006524188371
 41
0.2840430736903538
 42
0.4762073098550923
  0
ELLIPSE
  5
95D3
330
8C55
100
AcDbEntity
  8
Visible (ISO)
100
AcDbEllipse
 10
1160.738712100063
 20
207.7911086865766
 30
0.0
 11
9.999999999999692
 21
-0.0000000000005025
 31
0.0
210
0.0
220
0.0
230
1.0
 40
0.8910065241883714
 41
0.0
 42
0.4762073098541065
  0
ELLIPSE
  5
95D4
330
8C55
100
AcDbEntity
  8
Visible (ISO)
100
AcDbEllipse
 10
1180.064286610206
 20
199.1038388017438
 30
0.0
 11
-10.00000000000008
 21
0.0000000000061902
 31
0.0
210
0.0
220
0.0
230
1.0
 40
0.8910065241883714
 41
0.2156316701729093
 42
0.8776330378137329
  0
ELLIPSE
  5
95D5
330
8C55
100
AcDbEntity
  8
Visible (ISO)
100
AcDbEllipse
 10
1316.783483327735
 20
190.7195228375563
 30
0.0
 11
-9.999999999999872
 21
0.0000000000061923
 31
0.0
210
0.0
220
0.0
230
1.0
 40
0.8910065241883712
 41
5.562631902046655
 42
6.113620793796684
  0
ELLIPSE
  5
95D6
330
8C55
100
AcDbEntity
  8
Visible (ISO)
100
AcDbEllipse
 10
1308.960937090581
 20
209.7898807330053
 30
0.0
 11
9.999999999999928
 21
-0.0000000000061853
 31
0.0
210
0.0
220
0.0
230
1.0
 40
0.8910065241883716
 41
5.562631902046643
 42
6.073137493984261
  0
ELLIPSE
  5
95D7
330
8C55
100
AcDbEntity
  8
Visible (ISO)
100
AcDbEllipse
 10
1295.673234362884
 20
253.5818284548964
 30
0.0
 11
9.99999999999998
 21
-0.0000000000061902
 31
0.0
210
0.0
220
0.0
230
1.0
 40
0.8910065241883716
 41
0.1695645133842105
 42
1.121979133092918
  0
ELLIPSE
  5
95D8
330
8C55
100
AcDbEntity
  8
Visible (ISO)
100
AcDbEllipse
 10
1296.892316431112
 20
272.8377392644339
 30
0.0
 11
-10.00000000000003
 21
0.0000000000061888
 31
0.0
210
0.0
220
0.0
230
1.0
 40
0.8910065241883712
 41
0.5709902413429742
 42
1.12197913309295
  0
ELLIPSE
  5
95D9
330
8C55
100
AcDbEntity
  8
Visible (ISO)
100
AcDbEllipse
 10
1275.590559433494
 20
269.4129204262877
 30
0.0
 11
-9.999999999999946
 21
0.0000000000052694
 31
0.0
210
0.0
220
0.0
230
1.0
 40
0.8910065241883716
 41
3.712582894932573
 42
4.664997514641338
  0
ELLIPSE
  5
95DA
330
8C55
100
AcDbEntity
  8
Visible (ISO)
100
AcDbEllipse
 10
1268.26847824051
 20
287.5624958730091
 30
0.0
 11
-10.00000000000012
 21
0.0000000000061887
 31
0.0
210
0.0
220
0.0
230
1.0
 40
0.8910065241883714
 41
0.9724159693016209
 42
1.523404861051645
  0
ELLIPSE
  5
95DB
330
8C55
100
AcDbEntity
  8
Visible (ISO)
100
AcDbEllipse
 10
1308.960937090579
 20
204.7959852358705
 30
0.0
 11
9.999999999999934
 21
-0.0000000000061895
 31
0.0
210
0.0
220
0.0
230
1.0
 40
0.8910065241883712
 41
5.562631902046715
 42
6.073137493984261
  0
ELLIPSE
  5
95DC
330
8C55
100
AcDbEntity
  8
Visible (ISO)
100
AcDbEllipse
 10
1316.783483327732
 20
185.7256273404205
 30
0.0
 11
-10.00000000000005
 21
0.0000000000061885
 31
0.0
210
0.0
220
0.0
230
1.0
 40
0.8910065241883712
 41
5.562631902046739
 42
6.096491506326707
  0
ELLIPSE
  5
95DD
330
8C55
100
AcDbEntity
  8
Visible (ISO)
100
AcDbEllipse
 10
1180.064286610203
 20
194.1099433046089
 30
0.0
 11
-9.999999999999952
 21
0.0000000000061895
 31
0.0
210
0.0
220
0.0
230
1.0
 40
0.8910065241883714
 41
6.208403725284592
 42
7.160818344993305
  0
ELLIPSE
  5
95DE
330
8C55
100
AcDbEntity
  8
Visible (ISO)
100
AcDbEllipse
 10
1160.73871210006
 20
202.7972131894417
 30
0.0
 11
9.99999999999996
 21
-0.0000000000061826
 31
0.0
210
0.0
220
0.0
230
1.0
 40
0.8910065241883712
 41
6.208403725284593
 42
6.759392617034686
  0
ELLIPSE
  5
95DF
330
8C55
100
AcDbEntity
  8
Visible (ISO)
100
AcDbEllipse
 10
1174.718387904696
 20
217.521969798017
 30
0.0
 11
-9.999999999999976
 21
0.0000000000061923
 31
0.0
210
0.0
220
0.0
230
1.0
 40
0.8910065241883716
 41
5.80697799732588
 42
6.7593926170346
  0
ELLIPSE
  5
95E0
330
8C55
100
AcDbEntity
  8
Visible (ISO)
100
AcDbEllipse
 10
1160.738712100055
 20
232.2467264065904
 30
0.0
 11
9.99999999999998
 21
-0.0000000000061884
 31
0.0
210
0.0
220
0.0
230
1.0
 40
0.8910065241883712
 41
5.806977997325887
 42
6.357966889075969
  0
ELLIPSE
  5
95E1
330
8C55
100
AcDbEntity
  8
Visible (ISO)
100
AcDbEllipse
 10
1180.064286610195
 20
240.9339962914242
 30
0.0
 11
-9.999999999999953
 21
0.0000000000061867
 31
0.0
210
0.0
220
0.0
230
1.0
 40
0.891006524188371
 41
5.405552269367198
 42
6.357966889075968
  0
ELLIPSE
  5
95E2
330
8C55
100
AcDbEntity
  8
Visible (ISO)
100
AcDbEllipse
 10
1173.653142264609
 20
259.355146254789
 30
0.0
 11
9.999999999999978
 21
-0.0000000000061926
 31
0.0
210
0.0
220
0.0
230
1.0
 40
0.8910065241883712
 41
5.405552269367213
 42
5.956541161117285
  0
ELLIPSE
  5
95E3
330
8C55
100
AcDbEntity
  8
Visible (ISO)
100
AcDbEllipse
 10
1196.100098286027
 20
262.8541803308322
 30
0.0
 11
-9.999999999999936
 21
0.0000000000061909
 31
0.0
210
0.0
220
0.0
230
1.0
 40
0.8910065241883714
 41
5.446035569179645
 42
5.95654116111728
  0
ELLIPSE
  5
95E4
330
8C55
100
AcDbEntity
  8
Visible (ISO)
100
AcDbEllipse
 10
1220.838471395079
 20
275.5801648929769
 30
0.0
 11
-9.999999999999934
 21
0.0000000000061881
 31
0.0
210
0.0
220
0.0
230
1.0
 40
0.8910065241883714
 41
4.515434350850111
 42
5.025939942787655
  0
ELLIPSE
  5
95E5
330
8C55
100
AcDbEntity
  8
Visible (ISO)
100
AcDbEllipse
 10
1235.462881179346
 20
291.1514887123845
 30
0.0
 11
-9.999999999999946
 21
0.0000000000061871
 31
0.0
210
0.0
220
0.0
230
1.0
 40
0.8910065241883714
 41
1.373841697260301
 42
1.924830589010344
  0
ELLIPSE
  5
95E6
330
8C55
100
AcDbEntity
  8
Visible (ISO)
100
AcDbEllipse
 10
1250.161985798602
 20
276.9938549483045
 30
0.0
 11
-9.999999999999991
 21
0.0000000000052736
 31
0.0
210
0.0
220
0.0
230
1.0
 40
0.8910065241883716
 41
4.114008622891331
 42
5.066423242600066
  0
LINE
  5
95E7
330
8C55
100
AcDbEntity
  8
Visible (ISO)
100
AcDbLine
 10
1170.738712100058
 20
237.2406219037253
 30
0.0
 11
1170.738712100055
 21
232.2467264065904
 31
0.0
  0
LINE
  5
95E8
330
8C55
100
AcDbEntity
  8
Visible (ISO)
100
AcDbLine
 10
1170.738712100062
 20
207.7911086865766
 30
0.0
 11
1170.73871210006
 21
202.7972131894417
 31
0.0
  0
LINE
  5
95E9
330
8C55
100
AcDbEntity
  8
Visible (ISO)
100
AcDbLine
 10
1309.269076255982
 20
243.4394456479818
 30
0.0
 11
1316.475344162314
 21
236.1268209677915
 31
0.0
  0
LINE
  5
95EA
330
8C55
100
AcDbEntity
  8
Visible (ISO)
100
AcDbLine
 10
1170.295872269212
 20
242.840434057634
 30
0.0
 11
1170.710763703364
 21
237.9063098195079
 31
0.0
  0
LINE
  5
95EB
330
8C55
100
AcDbEntity
  8
Visible (ISO)
100
AcDbLine
 10
1165.83098866042
 20
218.4313865571062
 30
0.0
 11
1169.626111344343
 21
211.8755874246222
 31
0.0
  0
LINE
  5
95EC
330
8C55
100
AcDbEntity
  8
Visible (ISO)
100
AcDbLine
 10
1173.674549935652
 20
192.2499617131376
 30
0.0
 11
1178.221952180692
 21
188.8842897185164
 31
0.0
  0
LINE
  5
95ED
330
8C55
100
AcDbEntity
  8
Visible (ISO)
100
AcDbLine
 10
1305.52981786387
 20
255.0854298000664
 30
0.0
 11
1306.926899826736
 21
247.8147109104426
 31
0.0
  0
LINE
  5
95EE
330
8C55
100
AcDbEntity
  8
Visible (ISO)
100
AcDbLine
 10
1284.004221398599
 20
274.2285030176113
 30
0.0
 11
1288.478654466007
 21
268.0221566731112
 31
0.0
  0
LINE
  5
95EF
330
8C55
100
AcDbEntity
  8
Visible (ISO)
100
AcDbLine
 10
1255.795035645991
 20
284.3557878981643
 30
0.0
 11
1262.635428393121
 21
280.2005629231495
 31
0.0
  0
LINE
  5
95F0
330
8C55
100
AcDbEntity
  8
Visible (ISO)
100
AcDbLine
 10
1175.704227695936
 20
185.7538393999435
 30
0.0
 11
1173.674549935649
 21
187.2560662160027
 31
0.0
  0
LINE
  5
95F1
330
8C55
100
AcDbEntity
  8
Visible (ISO)
100
AcDbLine
 10
1170.092235006897
 20
194.7756312203906
 30
0.0
 11
1170.710763703366
 21
202.13152527366
 31
0.0
  0
LINE
  5
95F2
330
8C55
100
AcDbEntity
  8
Visible (ISO)
100
AcDbLine
 10
1169.62611134434
 20
206.8816919274865
 30
0.0
 11
1165.830988660417
 21
213.4374910599705
 31
0.0
  0
LINE
  5
95F3
330
8C55
100
AcDbEntity
  8
Visible (ISO)
100
AcDbLine
 10
1165.830988660416
 20
221.6064485360617
 30
0.0
 11
1169.626111344337
 21
228.1622476685457
 31
0.0
  0
LINE
  5
95F4
330
8C55
100
AcDbEntity
  8
Visible (ISO)
100
AcDbLine
 10
1170.71076370336
 20
232.912414322374
 30
0.0
 11
1170.09223500689
 21
240.2683083756416
 31
0.0
  0
LINE
  5
95F5
330
8C55
100
AcDbEntity
  8
Visible (ISO)
100
AcDbLine
 10
1173.67454993564
 20
247.7878733800295
 30
0.0
 11
1180.042878939165
 21
252.5012691661828
 31
0.0
  0
LINE
  5
95F6
330
8C55
100
AcDbEntity
  8
Visible (ISO)
100
AcDbLine
 10
1183.12438681977
 20
256.496205431467
 30
0.0
 11
1186.628853730867
 21
265.7131211541524
 31
0.0
  0
LINE
  5
95F7
330
8C55
100
AcDbEntity
  8
Visible (ISO)
100
AcDbLine
 10
1222.795308878498
 20
284.3179723239287
 30
0.0
 11
1233.506043695928
 21
282.4136812814336
 31
0.0
  0
LINE
  5
95F8
330
8C55
100
AcDbEntity
  8
Visible (ISO)
100
AcDbLine
 10
1238.929728005778
 20
282.7940102786093
 30
0.0
 11
1246.695138972169
 21
285.3513333820798
 31
0.0
  0
LINE
  5
95F9
330
8C55
100
AcDbEntity
  8
Visible (ISO)
100
AcDbLine
 10
1267.794740961337
 20
278.6624345436399
 30
0.0
 11
1276.064296712666
 21
278.312981755656
 31
0.0
  0
LINE
  5
95FA
330
8C55
100
AcDbEntity
  8
Visible (ISO)
100
AcDbLine
 10
1292.5533146752
 20
264.8101183987924
 30
0.0
 11
1300.012236118798
 21
261.6094493205379
 31
0.0
  0
LINE
  5
95FB
330
8C55
100
AcDbEntity
  8
Visible (ISO)
100
AcDbLine
 10
1306.17868339743
 20
188.3292428852925
 30
0.0
 11
1306.926899826748
 21
192.2231241827254
 31
0.0
  0
LINE
  5
95FC
330
8C55
100
AcDbEntity
  8
Visible (ISO)
100
AcDbLine
 10
1309.269076255994
 20
196.5983894451852
 30
0.0
 11
1316.475344162323
 21
203.9110141253764
 31
0.0
  0
LINE
  5
95FD
330
8C55
100
AcDbEntity
  8
Visible (ISO)
100
AcDbLine
 10
1316.47534416232
 20
198.9171186282416
 30
0.0
 11
1309.26907625599
 21
191.6044939480503
 31
0.0
  0
ELLIPSE
  5
95FE
330
8C55
100
AcDbEntity
  8
Visible (ISO)
100
AcDbEllipse
 10
1241.96650225728
 20
222.5158652951446
 30
0.0
 11
78.49999999995485
 21
-0.0000000000485653
 31
0.0
210
0.0
220
0.0
230
1.0
 40
0.8910065241883714
 41
6.073137493984267
 42
6.10669988745938
  0
ELLIPSE
  5
95FF
330
8C55
100
AcDbEntity
  8
Visible (ISO)
100
AcDbEllipse
 10
1241.966502257237
 20
222.5158652951519
 30
0.0
 11
-99.4999999999996
 21
0.0000000000037687
 31
0.0
210
0.0
220
0.0
230
1.0
 40
0.8910065241883712
 41
3.141592653589459
 42
6.283185307179251
  0
ELLIPSE
  5
9600
330
8C55
100
AcDbEntity
  8
Visible (ISO)
100
AcDbEllipse
 10
1241.966502257233
 20
217.521969798017
 30
0.0
 11
78.49999999999972
 21
-0.0000000000485667
 31
0.0
210
0.0
220
0.0
230
1.0
 40
0.8910065241883714
 41
6.073137493984286
 42
6.493233120376285
  0
ELLIPSE
  5
9601
330
8C55
100
AcDbEntity
  8
Visible (ISO)
100
AcDbEllipse
 10
1241.966502257233
 20
217.521969798017
 30
0.0
 11
78.49999999999934
 21
-0.0000000000558054
 31
0.0
210
0.0
220
0.0
230
1.0
 40
0.8910065241883716
 41
1.884347289197977
 42
2.304442915589991
  0
ELLIPSE
  5
9602
330
8C55
100
AcDbEntity
  8
Visible (ISO)
100
AcDbEllipse
 10
1241.966502257233
 20
217.521969798017
 30
0.0
 11
-99.49999999999961
 21
0.0000000000616229
 31
0.0
210
0.0
220
0.0
230
1.0
 40
0.8910065241883714
 41
2.35113140020612
 42
7.073646560564545
  0
ELLIPSE
  5
9603
330
8C55
100
AcDbEntity
  8
Visible (ISO)
100
AcDbEllipse
 10
1241.966502257231
 20
214.3440362998395
 30
0.0
 11
20.99999999999988
 21
-0.0000000000129953
 31
0.0
210
0.0
220
0.0
230
1.0
 40
0.8910065241883714
 41
0.4542887590225258
 42
1.632002573368984
  0
ELLIPSE
  5
9604
330
8C55
100
AcDbEntity
  8
Visible (ISO)
100
AcDbEllipse
 10
1241.966502257231
 20
214.3440362998395
 30
0.0
 11
-20.99999999999986
 21
0.000000000000745
 31
0.0
210
0.0
220
0.0
230
1.0
 40
0.8910065241883714
 41
5.779586791761294
 42
6.283185307179266
  0
LINE
  5
9605
330
8C55
100
AcDbEntity
  8
Visible (ISO)
100
AcDbLine
 10
1220.966502257228
 20
208.1846270573411
 30
0.0
 11
1220.966502257231
 21
214.3440362998404
 31
0.0
  0
LINE
  5
9606
330
8C55
100
AcDbEntity
  8
Visible (ISO)
100
AcDbLine
 10
1262.966502257228
 20
208.1846270573411
 30
0.0
 11
1262.96650225723
 21
211.9972712880322
 31
0.0
  0
LINE
  5
9607
330
8C55
100
AcDbEntity
  8
Visible (ISO)
100
AcDbLine
 10
1142.466502257234
 20
217.5219697980206
 30
0.0
 11
1142.466502257237
 21
222.5158652951555
 31
0.0
  0
LINE
  5
9608
330
8C55
100
AcDbEntity
  8
Visible (ISO)
100
AcDbLine
 10
1341.466502257233
 20
217.5219697980133
 30
0.0
 11
1341.466502257236
 21
222.5158652951473
 31
0.0
  0
ELLIPSE
  5
9609
330
8C55
100
AcDbEntity
  8
Visible (ISO)
100
AcDbEllipse
 10
1241.966502257229
 20
209.4961662653264
 30
0.0
 11
72.80105474769138
 21
34.8343196320022
 31
0.0
210
0.0
220
0.0
230
1.0
 40
0.8429676100198914
 41
5.778479075074615
 42
5.890336791042125
  0
ELLIPSE
  5
960A
330
8C55
100
AcDbEntity
  8
Visible (ISO)
100
AcDbEllipse
 10
1241.966502257229
 20
209.4961662653264
 30
0.0
 11
19.47544139747156
 21
9.318735188178921
 31
0.0
210
0.0
220
0.0
230
1.0
 40
0.8429676100198912
 41
5.899795547411994
 42
6.369228837820159
  0
LINE
  5
960B
330
8C55
100
AcDbEntity
  8
Visible (ISO)
100
AcDbLine
 10
1260.694823057557
 20
220.1912757318092
 30
0.0
 11
1260.694823057558
 21
222.5380407436165
 31
0.0
  0
LINE
  5
960C
330
8C55
100
AcDbEntity
  8
Visible (ISO)
100
AcDbLine
 10
1319.70829202508
 20
227.219794000474
 30
0.0
 11
1260.694823057557
 21
220.1912757318092
 31
0.0
  0
LINE
  5
960D
330
8C55
100
AcDbEntity
  8
Visible (ISO)
100
AcDbLine
 10
1284.629523190147
 20
206.1127802826382
 30
0.0
 11
1319.889541212348
 21
210.312256862449
 31
0.0
  0
LINE
  5
960E
330
8C55
100
AcDbEntity
  8
Visible (ISO)
100
AcDbLine
 10
1260.694823057558
 20
222.5380407436165
 30
0.0
 11
1319.303269495814
 21
229.5183207321739
 31
0.0
  0
LINE
  5
960F
330
8C55
100
AcDbEntity
  8
Visible (ISO)
100
AcDbLine
 10
1212.908573351384
 20
282.497589006764
 30
0.0
 11
1240.829583193017
 21
232.7571741815751
 31
0.0
  0
LINE
  5
9610
330
8C55
100
AcDbEntity
  8
Visible (ISO)
100
AcDbLine
 10
1195.290757086202
 20
273.758704804232
 30
0.0
 11
1224.375100521112
 21
221.9458471899794
 31
0.0
  0
ELLIPSE
  5
9611
330
8C55
100
AcDbEntity
  8
Visible (ISO)
100
AcDbEllipse
 10
1241.966502257229
 20
209.4961662653264
 30
0.0
 11
15.76694922435039
 21
-14.72873569264265
 31
0.0
210
0.0
220
0.0
230
0.9999999999999998
 40
0.9417612203329047
 41
2.346474984706774
 42
3.285341565523018
  0
LINE
  5
9612
330
8C55
100
AcDbEntity
  8
Visible (ISO)
100
AcDbLine
 10
1240.829583193015
 20
230.4104091697687
 30
0.0
 11
1211.814154624966
 21
282.1004970817544
 31
0.0
  0
LINE
  5
9613
330
8C55
100
AcDbEntity
  8
Visible (ISO)
100
AcDbLine
 10
1240.829583193017
 20
232.7571741815751
 30
0.0
 11
1240.829583193015
 21
230.4104091697687
 31
0.0
  0
ELLIPSE
  5
9614
330
8C55
100
AcDbEntity
  8
Visible (ISO)
100
AcDbEllipse
 10
1291.993469984592
 20
171.5964643876792
 30
0.0
 11
9.99999999999996
 21
-0.0000000000052729
 31
0.0
210
0.0
220
0.0
230
1.0
 40
0.8910065241883716
 41
3.852171619302361
 42
4.712388980385283
  0
ELLIPSE
  5
9615
330
8C55
100
AcDbEntity
  8
Visible (ISO)
100
AcDbEllipse
 10
1291.993469984587
 20
163.8447076272401
 30
0.0
 11
-0.0000000000040829
 21
-17.82013048376735
 31
0.0
210
0.0
220
0.0
230
1.0
 40
0.5611631188171781
 41
5.422967946096175
 42
6.283185307178769
  0
ELLIPSE
  5
9616
330
8C55
100
AcDbEntity
  8
Visible (ISO)
100
AcDbEllipse
 10
1191.939534529758
 20
171.5964643876792
 30
0.0
 11
9.999999999999959
 21
0.0
 31
0.0
210
0.0
220
0.0
230
1.0
 40
0.8910065241883714
 41
4.712388980384973
 42
5.572606341467673
  0
ELLIPSE
  5
9617
330
8C55
100
AcDbEntity
  8
Visible (ISO)
100
AcDbEllipse
 10
1191.939534529754
 20
163.8447076272401
 30
0.0
 11
-0.0000000000040807
 21
-17.82013048376735
 31
0.0
210
0.0
220
0.0
230
1.0
 40
0.5611631188171781
 41
0.0
 42
0.8602173610823955
  0
ELLIPSE
  5
9618
330
8C55
100
AcDbEntity
  8
Visible (ISO)
100
AcDbEllipse
 10
1241.966502257112
 20
133.2386335213174
 30
0.0
 11
-56.00000000009121
 21
0.0000000000295181
 31
0.0
210
0.0
220
0.0
230
1.0
 40
0.8910065241883714
 41
3.85217161930235
 42
3.856443329744456
  0
ELLIPSE
  5
9619
330
8C55
100
AcDbEntity
  8
Visible (ISO)
100
AcDbEllipse
 10
1241.966502257181
 20
133.2386335213701
 30
0.0
 11
-56.00000000000005
 21
0.0000000000294625
 31
0.0
210
0.0
220
0.0
230
1.0
 40
0.8910065241883712
 41
4.022399780663982
 42
4.32028510085477
  0
ELLIPSE
  5
961A
330
8C55
100
AcDbEntity
  8
Visible (ISO)
100
AcDbEllipse
 10
1241.966502257153
 20
87.12904589462199
 30
0.0
 11
-0.0000000000228556
 21
-99.79273070909719
 31
0.0
210
0.0
220
0.0
230
1.0
 40
0.5611631188171782
 41
2.281375292506378
 42
2.749488774058531
  0
LINE
  5
961B
330
8C55
100
AcDbEntity
  8
Visible (ISO)
100
AcDbLine
 10
1311.966502257176
 20
162.6863991457954
 30
0.0
 11
1291.993469984593
 21
162.6863991457954
 31
0.0
  0
LINE
  5
961C
330
8C55
100
AcDbEntity
  8
Visible (ISO)
100
AcDbLine
 10
1171.966502257177
 20
162.6863991457954
 30
0.0
 11
1191.939534529759
 21
162.6863991457954
 31
0.0
  0
ELLIPSE
  5
961D
330
8C55
100
AcDbEntity
  8
Visible (ISO)
100
AcDbEllipse
 10
1241.966502254881
 20
133.2386335231418
 30
0.0
 11
55.99999999695921
 21
-0.0000000000398154
 31
0.0
210
0.0
220
0.0
230
1.0
 40
0.8910065241883712
 41
2.426741977436323
 42
2.431013687878742
  0
ELLIPSE
  5
961E
330
8C55
100
AcDbEntity
  8
Visible (ISO)
100
AcDbEllipse
 10
1241.966502257182
 20
133.2386335213683
 30
0.0
 11
56.00000000000086
 21
-0.0000000000398542
 31
0.0
210
0.0
220
0.0
230
1.0
 40
0.8910065241883714
 41
1.962900206326203
 42
2.260785526516999
  0
ELLIPSE
  5
961F
330
8C55
100
AcDbEntity
  8
Visible (ISO)
100
AcDbEllipse
 10
1241.966502257153
 20
87.12904589462199
 30
0.0
 11
-0.0000000000228601
 21
-99.79273070909719
 31
0.0
210
0.0
220
0.0
230
1.0
 40
0.5611631188171782
 41
3.533696533119577
 42
4.00181001467219
  0
LINE
  5
9620
330
8C55
100
AcDbEntity
  8
Visible (ISO)
100
AcDbLine
 10
1171.966502257167
 20
146.0245771434725
 30
0.0
 11
1171.966502257177
 21
162.6863991457954
 31
0.0
  0
LINE
  5
9621
330
8C55
100
AcDbEntity
  8
Visible (ISO)
100
AcDbLine
 10
1191.93953452975
 20
146.0245771434725
 30
0.0
 11
1171.966502257167
 21
146.0245771434725
 31
0.0
  0
LINE
  5
9622
330
8C55
100
AcDbEntity
  8
Visible (ISO)
100
AcDbLine
 10
1311.966502257166
 20
146.0245771434725
 30
0.0
 11
1291.993469984583
 21
146.0245771434725
 31
0.0
  0
LINE
  5
9623
330
8C55
100
AcDbEntity
  8
Visible (ISO)
100
AcDbLine
 10
1311.966502257176
 20
162.6863991457954
 30
0.0
 11
1311.966502257166
 21
146.0245771434725
 31
0.0
  0
LINE
  5
9624
330
8C55
100
AcDbEntity
  8
Visible (ISO)
100
AcDbLine
 10
1311.966502257176
 20
167.7471678168063
 30
0.0
 11
1311.966502257177
 21
162.6863991457954
 31
0.0
  0
ELLIPSE
  5
9625
330
8C55
100
AcDbEntity
  8
Visible (ISO)
100
AcDbEllipse
 10
1241.966502257181
 20
133.2386335213701
 30
0.0
 11
79.99999999999983
 21
-0.000000000049466
 31
0.0
210
0.0
220
0.0
230
1.0
 40
0.8910065241883714
 41
0.5053605102848504
 42
1.065435816511428
  0
LINE
  5
9626
330
8C55
100
AcDbEntity
  8
Visible (ISO)
100
AcDbLine
 10
1203.236668795098
 20
195.6090902145548
 30
0.0
 11
1280.696335719246
 21
195.6090902145548
 31
0.0
  0
ELLIPSE
  5
9627
330
8C55
100
AcDbEntity
  8
Visible (ISO)
100
AcDbEllipse
 10
1241.966502257181
 20
133.2386335213701
 30
0.0
 11
79.99999999999944
 21
-0.0000000000568434
 31
0.0
210
0.0
220
0.0
230
1.0
 40
0.8910065241883716
 41
2.076156837079855
 42
2.636232143306465
  0
LINE
  5
9628
330
8C55
100
AcDbEntity
  8
Visible (ISO)
100
AcDbLine
 10
1171.966502257177
 20
162.6863991457954
 30
0.0
 11
1171.966502257176
 21
167.7471678168063
 31
0.0
  0
ELLIPSE
  5
9629
330
8C55
100
AcDbEntity
  8
Visible (ISO)
100
AcDbEllipse
 10
1241.966502257189
 20
133.238633521381
 30
0.0
 11
-80.00000000001456
 21
0.0000000000494549
 31
0.0
210
0.0
220
0.0
230
1.0
 40
0.8910065241883717
 41
1.031272688572649
 42
1.065435816511431
  0
ELLIPSE
  5
962A
330
8C55
100
AcDbEntity
  8
Visible (ISO)
100
AcDbEllipse
 10
1241.96650225718
 20
133.2386335213683
 30
0.0
 11
-79.99999999999802
 21
0.0000000000495048
 31
0.0
210
0.0
220
0.0
230
1.0
 40
0.8910065241883714
 41
0.7034794337582256
 42
0.8407497885986208
  0
LINE
  5
962B
330
8C55
100
AcDbEntity
  8
Visible (ISO)
100
AcDbLine
 10
1280.696335719265
 20
70.86817682818367
 30
0.0
 11
1203.236668795118
 21
70.86817682818367
 31
0.0
  0
ELLIPSE
  5
962C
330
8C55
100
AcDbEntity
  8
Visible (ISO)
100
AcDbEllipse
 10
1241.966502257182
 20
133.2386335213683
 30
0.0
 11
-79.99999999999817
 21
0.0000000000568878
 31
0.0
210
0.0
220
0.0
230
1.0
 40
0.8910065241883716
 41
2.300842864992667
 42
2.438113219833079
  0
ELLIPSE
  5
962D
330
8C55
100
AcDbEntity
  8
Visible (ISO)
100
AcDbEllipse
 10
1241.966502257193
 20
133.2386335213519
 30
0.0
 11
-79.9999999999768
 21
0.0000000000569045
 31
0.0
210
0.0
220
0.0
230
1.0
 40
0.8910065241883712
 41
2.076156837079826
 42
2.110319965018614
  0
LINE
  5
962E
330
8C55
100
AcDbEntity
  8
Visible (ISO)
100
AcDbLine
 10
1171.96650225718
 20
175.3288091624568
 30
0.0
 11
1171.966502257177
 21
167.7471678168063
 31
0.0
  0
LINE
  5
962F
330
8C55
100
AcDbEntity
  8
Visible (ISO)
100
AcDbLine
 10
1280.69633571925
 20
203.1907315602053
 30
0.0
 11
1203.236668795102
 21
203.1907315602053
 31
0.0
  0
ELLIPSE
  5
9630
330
8C55
100
AcDbEntity
  8
Visible (ISO)
100
AcDbEllipse
 10
1241.966502257186
 20
140.8202748670206
 30
0.0
 11
-79.99999999999984
 21
0.0000000000421496
 31
0.0
210
0.0
220
0.0
230
1.0
 40
0.8910065241883714
 41
3.646953163874506
 42
4.207028470101114
  0
ELLIPSE
  5
9631
330
8C55
100
AcDbEntity
  8
Visible (ISO)
100
AcDbEllipse
 10
1241.966502257186
 20
140.8202748670206
 30
0.0
 11
-79.99999999999947
 21
0.0000000000494993
 31
0.0
210
0.0
220
0.0
230
1.0
 40
0.8910065241883714
 41
5.21774949066954
 42
5.777824796896123
  0
LINE
  5
9632
330
8C55
100
AcDbEntity
  8
Visible (ISO)
100
AcDbLine
 10
1311.96650225718
 20
175.3288091624568
 30
0.0
 11
1311.966502257176
 21
167.7471678168063
 31
0.0
  0
LINE
  5
9633
330
8C55
100
AcDbEntity
  8
Visible (ISO)
100
AcDbLine
 10
1280.69633571925
 20
203.1907315602053
 30
0.0
 11
1280.696335719245
 21
195.6090902145548
 31
0.0
  0
LINE
  5
9634
330
8C55
100
AcDbEntity
  8
Visible (ISO)
100
AcDbLine
 10
1203.236668795102
 20
203.1907315602053
 30
0.0
 11
1203.236668795098
 21
195.6090902145548
 31
0.0
  0
LINE
  5
9635
330
8C55
100
AcDbEntity
  8
Visible (ISO)
100
AcDbLine
 10
1220.567027964566
 20
179.3482211481174
 30
0.0
 11
1263.365976549782
 21
179.3482211481174
 31
0.0
  0
LINE
  5
9636
330
8C55
100
AcDbEntity
  8
Visible (ISO)
100
AcDbLine
 10
1171.966502257167
 20
146.0245771434725
 30
0.0
 11
1171.966502257161
 21
123.6889858800492
 31
0.0
  0
LINE
  5
9637
330
8C55
100
AcDbEntity
  8
Visible (ISO)
100
AcDbLine
 10
1212.166502257161
 20
123.6889858800492
 30
0.0
 11
1171.966502257161
 21
123.6889858800492
 31
0.0
  0
LINE
  5
9638
330
8C55
100
AcDbEntity
  8
Visible (ISO)
100
AcDbLine
 10
1311.966502257161
 20
123.6889858800492
 30
0.0
 11
1271.766502257162
 21
123.6889858800492
 31
0.0
  0
LINE
  5
9639
330
8C55
100
AcDbEntity
  8
Visible (ISO)
100
AcDbLine
 10
1311.966502257161
 20
123.6889858800492
 30
0.0
 11
1311.966502257166
 21
146.0245771434725
 31
0.0
  0
LINE
  5
963A
330
8C55
100
AcDbEntity
  8
Visible (ISO)
100
AcDbLine
 10
1171.966502257161
 20
123.6889858800492
 30
0.0
 11
1171.966502257168
 21
87.12904589462199
 31
0.0
  0
LINE
  5
963B
330
8C55
100
AcDbEntity
  8
Visible (ISO)
100
AcDbLine
 10
1271.766502257167
 20
87.12904589462199
 30
0.0
 11
1311.966502257167
 21
87.12904589462199
 31
0.0
  0
LINE
  5
963C
330
8C55
100
AcDbEntity
  8
Visible (ISO)
100
AcDbLine
 10
1171.966502257168
 20
87.12904589462199
 30
0.0
 11
1212.166502257167
 21
87.12904589462199
 31
0.0
  0
LINE
  5
963D
330
8C55
100
AcDbEntity
  8
Visible (ISO)
100
AcDbLine
 10
1311.966502257167
 20
87.12904589462199
 30
0.0
 11
1311.96650225716
 21
123.6889858800492
 31
0.0
  0
ELLIPSE
  5
963E
330
8C55
100
AcDbEntity
  8
Visible (ISO)
100
AcDbEllipse
 10
1286.318847325545
 20
180.3346246893403
 30
0.0
 11
-8.999999999999964
 21
0.0
 31
0.0
210
0.0
220
0.0
230
1.0
 40
0.8910065241883714
 41
3.141592653589436
 42
6.283185307179228
  0
ELLIPSE
  5
963F
330
8C55
100
AcDbEntity
  8
Visible (ISO)
100
AcDbEllipse
 10
1197.614157188803
 20
180.3346246893403
 30
0.0
 11
-8.999999999999968
 21
0.0000000000003165
 31
0.0
210
0.0
220
0.0
230
1.0
 40
0.8910065241883712
 41
3.141592653589441
 42
6.283185307179234
  0
ELLIPSE
  5
9640
330
8C55
100
AcDbEntity
  8
Visible (ISO)
100
AcDbEllipse
 10
1197.614157188799
 20
173.7517624431162
 30
0.0
 11
8.999999999999964
 21
0.0
 31
0.0
210
0.0
220
0.0
230
1.0
 40
0.8910065241883714
 41
0.0
 42
6.283185307179586
  0
ELLIPSE
  5
9641
330
8C55
100
AcDbEntity
  8
Visible (ISO)
100
AcDbEllipse
 10
1286.318847325541
 20
173.7517624431162
 30
0.0
 11
-8.999999999999964
 21
0.0
 31
0.0
210
0.0
220
0.0
230
1.0
 40
0.8910065241883714
 41
0.0
 42
6.283185307179586
  0
LINE
  5
9642
330
8C55
100
AcDbEntity
  8
Visible (ISO)
100
AcDbLine
 10
1206.614157188802
 20
180.3346246893394
 30
0.0
 11
1206.614157188799
 21
173.7517624431162
 31
0.0
  0
LINE
  5
9643
330
8C55
100
AcDbEntity
  8
Visible (ISO)
100
AcDbLine
 10
1188.614157188802
 20
180.3346246893403
 30
0.0
 11
1188.614157188799
 21
173.7517624431171
 31
0.0
  0
LINE
  5
9644
330
8C55
100
AcDbEntity
  8
Visible (ISO)
100
AcDbLine
 10
1277.318847325541
 20
173.7517624431171
 30
0.0
 11
1277.318847325545
 21
180.3346246893403
 31
0.0
  0
LINE
  5
9645
330
8C55
100
AcDbEntity
  8
Visible (ISO)
100
AcDbLine
 10
1295.318847325541
 20
173.7517624431162
 30
0.0
 11
1295.318847325545
 21
180.3346246893394
 31
0.0
  0
ELLIPSE
  5
9646
330
8C55
100
AcDbEntity
  8
Visible (ISO)
100
AcDbEllipse
 10
1286.318847325559
 20
86.14264235339909
 30
0.0
 11
-8.999999999999499
 21
-0.0000000000000317
 31
0.0
210
0.0
220
0.0
230
1.0
 40
0.8910065241883714
 41
6.15986557813887
 42
6.283185307179223
  0
ELLIPSE
  5
9647
330
8C55
100
AcDbEntity
  8
Visible (ISO)
100
AcDbEllipse
 10
1286.318847325561
 20
86.14264235339909
 30
0.0
 11
8.999999999999106
 21
-0.0000000000055692
 31
0.0
210
0.0
220
0.0
230
1.0
 40
0.891006524188371
 41
0.0
 42
0.123319729041012
  0
ELLIPSE
  5
9648
330
8C55
100
AcDbEntity
  8
Visible (ISO)
100
AcDbEllipse
 10
1286.318847325556
 20
79.55978010717593
 30
0.0
 11
8.999999999999964
 21
-0.0000000000055692
 31
0.0
210
0.0
220
0.0
230
1.0
 40
0.8910065241883716
 41
1.907316264362759
 42
7.517461696407977
  0
LINE
  5
9649
330
8C55
100
AcDbEntity
  8
Visible (ISO)
100
AcDbLine
 10
1295.31884732556
 20
86.14264235339909
 30
0.0
 11
1295.318847325556
 21
79.55978010717503
 31
0.0
  0
LINE
  5
964A
330
8C55
100
AcDbEntity
  8
Visible (ISO)
100
AcDbLine
 10
1277.31884732556
 20
86.14264235339909
 30
0.0
 11
1277.318847325555
 21
79.55978010717593
 31
0.0
  0
ELLIPSE
  5
964B
330
8C55
100
AcDbEntity
  8
Visible (ISO)
100
AcDbEllipse
 10
1197.614157188817
 20
86.14264235339909
 30
0.0
 11
-8.999999999998703
 21
0.0000000000002928
 31
0.0
210
0.0
220
0.0
230
1.0
 40
0.8910065241883714
 41
6.159865578138955
 42
6.28318530717923
  0
ELLIPSE
  5
964C
330
8C55
100
AcDbEntity
  8
Visible (ISO)
100
AcDbEllipse
 10
1197.614157188819
 20
86.14264235339909
 30
0.0
 11
8.999999999998914
 21
-0.0000000000055712
 31
0.0
210
0.0
220
0.0
230
1.0
 40
0.8910065241883716
 41
0.0
 42
0.1233197290410146
  0
ELLIPSE
  5
964D
330
8C55
100
AcDbEntity
  8
Visible (ISO)
100
AcDbEllipse
 10
1197.614157188814
 20
79.55978010717593
 30
0.0
 11
-8.999999999999975
 21
0.0000000000055709
 31
0.0
210
0.0
220
0.0
230
1.0
 40
0.8910065241883714
 41
5.04890891795259
 42
10.65905434999782
  0
LINE
  5
964E
330
8C55
100
AcDbEntity
  8
Visible (ISO)
100
AcDbLine
 10
1188.614157188814
 20
79.55978010717593
 30
0.0
 11
1188.614157188818
 21
86.14264235339909
 31
0.0
  0
LINE
  5
964F
330
8C55
100
AcDbEntity
  8
Visible (ISO)
100
AcDbLine
 10
1206.614157188814
 20
79.55978010717503
 30
0.0
 11
1206.614157188818
 21
86.14264235339909
 31
0.0
  0
LINE
  5
9650
330
8C55
100
AcDbEntity
  8
Visible (ISO)
100
AcDbLine
 10
1212.166502257161
 20
123.6889858800492
 30
0.0
 11
1228.976121200401
 21
150.1249562492372
 31
0.0
  0
ELLIPSE
  5
9651
330
8C55
100
AcDbEntity
  8
Visible (ISO)
100
AcDbEllipse
 10
1241.966502257166
 20
143.315098753144
 30
0.0
 11
14.99999999999994
 21
-0.0000000000000011
 31
0.0
210
0.0
220
0.0
230
1.0
 40
0.9079809994790972
 41
0.5235987755982193
 42
2.617993877991423
  0
LINE
  5
9652
330
8C55
100
AcDbEntity
  8
Visible (ISO)
100
AcDbLine
 10
1254.956883313933
 20
150.1249562492372
 30
0.0
 11
1271.766502257162
 21
123.6889858800492
 31
0.0
  0
LINE
  5
9653
330
8C55
100
AcDbEntity
  8
Visible (ISO)
100
AcDbLine
 10
1271.766502257167
 20
87.12904589462199
 30
0.0
 11
1254.956883313943
 21
87.12904589462199
 31
0.0
  0
LINE
  5
9654
330
8C55
100
AcDbEntity
  8
Visible (ISO)
100
AcDbLine
 10
1254.956883313943
 20
87.12904589462199
 30
0.0
 11
1228.976121200411
 21
87.12904589462199
 31
0.0
  0
LINE
  5
9655
330
8C55
100
AcDbEntity
  8
Visible (ISO)
100
AcDbLine
 10
1228.976121200411
 20
87.12904589462199
 30
0.0
 11
1212.166502257167
 21
87.12904589462199
 31
0.0
  0
LINE
  5
9656
330
8C55
100
AcDbEntity
  8
Visible (ISO)
100
AcDbLine
 10
1271.766502257162
 20
123.6889858800492
 30
0.0
 11
1271.766502257167
 21
87.12904589462199
 31
0.0
  0
LINE
  5
9657
330
8C55
100
AcDbEntity
  8
Visible (ISO)
100
AcDbLine
 10
1212.166502257167
 20
87.12904589462199
 30
0.0
 11
1212.166502257161
 21
123.6889858800492
 31
0.0
  0
LINE
  5
9658
330
8C55
100
AcDbEntity
  8
Visible (ISO)
100
AcDbLine
 10
1133.966502257174
 20
159.4811952535452
 30
0.0
 11
1133.966502257174
 21
81.98119525354526
 31
0.0
  0
LINE
  5
9659
330
8C55
100
AcDbEntity
  8
Visible (ISO)
100
AcDbLine
 10
1136.816502257174
 20
159.4811952535452
 30
0.0
 11
1136.816502257174
 21
81.98119525354526
 31
0.0
  0
LINE
  5
965A
330
8C55
100
AcDbEntity
  8
Visible (ISO)
100
AcDbLine
 10
1139.364293897037
 20
152.4811952535452
 30
0.0
 11
1139.364293897037
 21
88.98119525354527
 31
0.0
  0
LINE
  5
965B
330
8C55
100
AcDbEntity
  8
Visible (ISO)
100
AcDbLine
 10
1136.816502257173
 20
81.98119525354526
 30
0.0
 11
1133.966502257173
 21
81.98119525354526
 31
0.0
  0
LINE
  5
965C
330
8C55
100
AcDbEntity
  8
Visible (ISO)
100
AcDbLine
 10
1136.816502257173
 20
159.4811952535452
 30
0.0
 11
1133.966502257173
 21
159.4811952535452
 31
0.0
  0
LINE
  5
965D
330
8C55
100
AcDbEntity
  8
Visible (ISO)
100
AcDbLine
 10
1139.364293897037
 20
88.98119525354527
 30
0.0
 11
1136.816502257173
 21
81.98119525354526
 31
0.0
  0
LINE
  5
965E
330
8C55
100
AcDbEntity
  8
Visible (ISO)
100
AcDbLine
 10
1139.364293897037
 20
152.4811952535452
 30
0.0
 11
1136.816502257173
 21
159.4811952535452
 31
0.0
  0
LINE
  5
965F
330
8C55
100
AcDbEntity
  8
Visible (ISO)
100
AcDbLine
 10
1171.966502257174
 20
88.98119525354527
 30
0.0
 11
1139.364293897037
 21
88.98119525354527
 31
0.0
  0
LINE
  5
9660
330
8C55
100
AcDbEntity
  8
Visible (ISO)
100
AcDbLine
 10
1171.966502257174
 20
152.4811952535452
 30
0.0
 11
1139.364293897037
 21
152.4811952535452
 31
0.0
  0
LINE
  5
9661
330
8C55
100
AcDbEntity
  8
Visible (ISO)
100
AcDbLine
 10
1349.966502257173
 20
159.4811952535452
 30
0.0
 11
1349.966502257173
 21
81.98119525354526
 31
0.0
  0
LINE
  5
9662
330
8C55
100
AcDbEntity
  8
Visible (ISO)
100
AcDbLine
 10
1347.116502257173
 20
159.4811952535452
 30
0.0
 11
1347.116502257173
 21
81.98119525354526
 31
0.0
  0
LINE
  5
9663
330
8C55
100
AcDbEntity
  8
Visible (ISO)
100
AcDbLine
 10
1344.56871061731
 20
152.4811952535452
 30
0.0
 11
1344.56871061731
 21
88.98119525354527
 31
0.0
  0
LINE
  5
9664
330
8C55
100
AcDbEntity
  8
Visible (ISO)
100
AcDbLine
 10
1349.966502257173
 20
81.98119525354526
 30
0.0
 11
1347.116502257173
 21
81.98119525354526
 31
0.0
  0
LINE
  5
9665
330
8C55
100
AcDbEntity
  8
Visible (ISO)
100
AcDbLine
 10
1349.966502257173
 20
159.4811952535452
 30
0.0
 11
1347.116502257173
 21
159.4811952535452
 31
0.0
  0
LINE
  5
9666
330
8C55
100
AcDbEntity
  8
Visible (ISO)
100
AcDbLine
 10
1344.56871061731
 20
152.4811952535452
 30
0.0
 11
1347.116502257173
 21
159.4811952535452
 31
0.0
  0
LINE
  5
9667
330
8C55
100
AcDbEntity
  8
Visible (ISO)
100
AcDbLine
 10
1344.56871061731
 20
88.98119525354527
 30
0.0
 11
1347.116502257173
 21
81.98119525354526
 31
0.0
  0
LINE
  5
9668
330
8C55
100
AcDbEntity
  8
Visible (ISO)
100
AcDbLine
 10
1344.56871061731
 20
88.98119525354527
 30
0.0
 11
1311.966502257174
 21
88.98119525354527
 31
0.0
  0
LINE
  5
9669
330
8C55
100
AcDbEntity
  8
0
  6
CENTER
100
AcDbLine
 10
1372.517589951747
 20
120.8746368535454
 30
0.0
 11
1111.415414562585
 21
120.8746368535454
 31
0.0
  0
LINE
  5
966A
330
8C55
100
AcDbEntity
  8
Visible (ISO)
100
AcDbLine
 10
1344.56871061731
 20
152.4811952535452
 30
0.0
 11
1311.966502257173
 21
152.4811952535452
 31
0.0
  0
ELLIPSE
  5
966B
330
8C55
100
AcDbEntity
  8
Visible (ISO)
100
AcDbEllipse
 10
1241.966502257189
 20
145.8141703641555
 30
0.0
 11
79.99999999999963
 21
-0.000000000056799
 31
0.0
210
0.0
220
0.0
230
1.0
 40
0.8910065241883716
 41
2.076156837079857
 42
2.636232143306465
  0
LINE
  5
966C
330
8C55
100
AcDbEntity
  8
Visible (ISO)
100
AcDbLine
 10
1203.236668795105
 20
208.1846270573401
 30
0.0
 11
1280.696335719253
 21
208.1846270573401
 31
0.0
  0
ELLIPSE
  5
966D
330
8C55
100
AcDbEntity
  8
Visible (ISO)
100
AcDbEllipse
 10
1241.966502257189
 20
145.8141703641555
 30
0.0
 11
79.99999999999957
 21
-0.0000000000493994
 31
0.0
210
0.0
220
0.0
230
1.0
 40
0.8910065241883716
 41
0.5053605102848504
 42
1.065435816511433
  0
ELLIPSE
  5
966E
330
8C55
100
AcDbEntity
  8
Visible (ISO)
100
AcDbEllipse
 10
1241.966502257186
 20
141.2742653667597
 30
0.0
 11
-79.99999999999975
 21
0.0000000000421274
 31
0.0
210
0.0
220
0.0
230
1.0
 40
0.8910065241883716
 41
3.646953163874506
 42
4.207028470101118
  0
LINE
  5
966F
330
8C55
100
AcDbEntity
  8
Visible (ISO)
100
AcDbLine
 10
1280.69633571925
 20
203.6447220599453
 30
0.0
 11
1203.236668795102
 21
203.6447220599453
 31
0.0
  0
ELLIPSE
  5
9670
330
8C55
100
AcDbEntity
  8
Visible (ISO)
100
AcDbEllipse
 10
1241.966502257186
 20
141.2742653667597
 30
0.0
 11
-79.99999999999963
 21
0.0000000000494826
 31
0.0
210
0.0
220
0.0
230
1.0
 40
0.8910065241883712
 41
5.217749490669542
 42
5.777824796896124
  0
LINE
  5
9671
330
8C55
100
AcDbEntity
  8
Visible (ISO)
100
AcDbLine
 10
1171.966502257181
 20
175.7827996621969
 30
0.0
 11
1171.966502257181
 21
175.3288091624568
 31
0.0
  0
SPLINE
  5
9672
330
8C55
100
AcDbEntity
  8
Visible (ISO)
100
AcDbSpline
210
0.0
220
0.0
230
1.0
 70
     8
 71
     3
 72
     8
 73
     4
 74
     0
 42
0.0000000001
 43
0.0000000001
 40
-0.0285636874408327
 40
-0.0285636874408327
 40
-0.0285636874408327
 40
-0.0285636874408327
 40
0.0
 40
0.0
 40
0.0
 40
0.0
 10
1172.165190740695
 20
175.6468570091834
 30
0.0
 10
1172.098962286809
 20
175.6921806325959
 30
0.0
 10
1172.032732721544
 20
175.7374948855773
 30
0.0
 10
1171.966502257181
 20
175.7827996621969
 30
0.0
  0
SPLINE
  5
9673
330
8C55
100
AcDbEntity
  8
Visible (ISO)
100
AcDbSpline
210
0.0
220
0.0
230
1.0
 70
     8
 71
     3
 72
     8
 73
     4
 74
     0
 42
0.0000000001
 43
0.0000000001
 40
-0.0485257229211281
 40
-0.0485257229211281
 40
-0.0485257229211281
 40
-0.0485257229211281
 40
0.0
 40
0.0
 40
0.0
 40
0.0
 10
1203.323919567063
 20
203.1907315602053
 30
0.0
 10
1203.294803993689
 20
203.3420573033632
 30
0.0
 10
1203.265720385507
 20
203.4933879365777
 30
0.0
 10
1203.236668795102
 20
203.6447220599453
 30
0.0
  0
SPLINE
  5
9674
330
8C55
100
AcDbEntity
  8
Visible (ISO)
100
AcDbSpline
210
0.0
220
0.0
230
1.0
 70
     8
 71
     3
 72
     8
 73
     4
 74
     0
 42
0.0000000001
 43
0.0000000001
 40
-0.0485257229213558
 40
-0.0485257229213558
 40
-0.0485257229213558
 40
-0.0485257229213558
 40
0.0
 40
0.0
 40
0.0
 40
0.0
 10
1280.60908494729
 20
203.1907315602053
 30
0.0
 10
1280.638200520663
 20
203.3420573033614
 30
0.0
 10
1280.667284128846
 20
203.4933879365777
 30
0.0
 10
1280.69633571925
 20
203.6447220599453
 30
0.0
  0
SPLINE
  5
9675
330
8C55
100
AcDbEntity
  8
Visible (ISO)
100
AcDbSpline
210
0.0
220
0.0
230
1.0
 70
     8
 71
     3
 72
     8
 73
     4
 74
     0
 42
0.0000000001
 43
0.0000000001
 40
-0.0285636874410287
 40
-0.0285636874410287
 40
-0.0285636874410287
 40
-0.0285636874410287
 40
0.0
 40
0.0
 40
0.0
 40
0.0
 10
1311.767813773665
 20
175.6468570091834
 30
0.0
 10
1311.834042227553
 20
175.692180632595
 30
0.0
 10
1311.900271792817
 20
175.7374948855764
 30
0.0
 10
1311.96650225718
 20
175.7827996621969
 30
0.0
  0
LINE
  5
9676
330
8C55
100
AcDbEntity
  8
Visible (ISO)
100
AcDbLine
 10
1311.96650225718
 20
175.3288091624568
 30
0.0
 11
1311.96650225718
 21
175.7827996621969
 31
0.0
  0
LINE
  5
9677
330
8C55
100
AcDbEntity
  8
Visible (ISO)
100
AcDbLine
 10
1280.696335719253
 20
208.1846270573401
 30
0.0
 11
1280.69633571925
 21
203.6447220599453
 31
0.0
  0
LINE
  5
9678
330
8C55
100
AcDbEntity
  8
Visible (ISO)
100
AcDbLine
 10
1311.966502257183
 20
180.3227046595917
 30
0.0
 11
1311.96650225718
 21
175.782799662196
 31
0.0
  0
LINE
  5
9679
330
8C55
100
AcDbEntity
  8
Visible (ISO)
100
AcDbLine
 10
1203.236668795105
 20
208.1846270573401
 30
0.0
 11
1203.236668795102
 21
203.6447220599453
 31
0.0
  0
LINE
  5
967A
330
8C55
100
AcDbEntity
  8
Visible (ISO)
100
AcDbLine
 10
1171.966502257184
 20
180.3227046595917
 30
0.0
 11
1171.966502257181
 21
175.7827996621969
 31
0.0
  0
LINE
  5
967B
330
8C55
100
AcDbEntity
  8
0
  6
CENTER
100
AcDbLine
 10
1241.966502257166
 20
59.96783586502137
 30
0.0
 11
1241.966502257166
 21
337.9129235507058
 31
0.0
  0
LINE
  5
967C
330
8C55
100
AcDbEntity
  8
0
  6
CENTER
100
AcDbLine
 10
1614.781080139352
 20
65.8578670254152
 30
0.0
 11
1614.781080139352
 21
175.6045234816953
 31
0.0
  0
LINE
  5
967D
330
8C55
100
AcDbEntity
  8
0
  6
CENTER
100
AcDbLine
 10
1559.907751911212
 20
120.7311952535552
 30
0.0
 11
1669.654408367492
 21
120.7311952535552
 31
0.0
  0
LINE
  5
967E
330
8C55
100
AcDbEntity
  8
0
  6
CENTER
100
AcDbLine
 10
2047.781080139403
 20
249.7511236652759
 30
0.0
 11
2047.781080139403
 21
61.21523472707906
 31
0.0
  0
ENDSEC
  0
SECTION
  2
OBJECTS
  0
DICTIONARY
  5
8C43
330
0
100
AcDbDictionary
281
     1
  3
ACAD_GROUP
350
8C44
  3
ACAD_LAYOUT
350
8C50
  3
ACAD_MLINESTYLE
350
8C4D
  3
ACAD_PLOTSETTINGS
350
8C4F
  3
ACAD_PLOTSTYLENAME
350
8C45
  3
AcDbVariableDictionary
350
8C9B
  0
DICTIONARY
  5
8D12
330
8C39
100
AcDbDictionary
280
     1
281
     1
  3
ACAD_LAYERSTATES
360
8D13
  0
DICTIONARY
  5
8C67
330
8C55
100
AcDbDictionary
280
     1
281
     1
  3
ACAD_LAYOUTSELFREF
360
8D0A
  0
DICTIONARY
  5
8C69
330
8C51
100
AcDbDictionary
280
     1
281
     1
  3
ACAD_LAYOUTSELFREF
360
8D09
  0
DICTIONARY
  5
8C44
102
{ACAD_REACTORS
330
8C43
102
}
330
8C43
100
AcDbDictionary
281
     1
  0
DICTIONARY
  5
8C50
102
{ACAD_REACTORS
330
8C43
102
}
330
8C43
100
AcDbDictionary
281
     1
  3
Model
350
8C58
  3
ﾚｲｱｳﾄ1
350
8C54
  0
DICTIONARY
  5
8C4D
102
{ACAD_REACTORS
330
8C43
102
}
330
8C43
100
AcDbDictionary
281
     1
  3
Standard
350
8C4E
  0
DICTIONARY
  5
8C4F
102
{ACAD_REACTORS
330
8C43
102
}
330
8C43
100
AcDbDictionary
281
     1
  0
ACDBDICTIONARYWDFLT
  5
8C45
102
{ACAD_REACTORS
330
8C43
102
}
330
8C43
100
AcDbDictionary
281
     1
  3
Normal
350
8C46
100
AcDbDictionaryWithDefault
340
8C46
  0
DICTIONARY
  5
8C9B
102
{ACAD_REACTORS
330
8C43
102
}
330
8C43
100
AcDbDictionary
281
     1
  3
DIMASSOC
350
8C9C
  0
DICTIONARY
  5
8D13
102
{ACAD_REACTORS
330
8D12
102
}
330
8D12
100
AcDbDictionary
281
     1
  0
XRECORD
  5
8D0A
102
{ACAD_REACTORS
330
8C67
102
}
330
8C67
100
AcDbXrecord
280
     1
340
8C55
  0
XRECORD
  5
8D09
102
{ACAD_REACTORS
330
8C69
102
}
330
8C69
100
AcDbXrecord
280
     1
340
8C51
  0
LAYOUT
  5
8C58
102
{ACAD_REACTORS
330
8C50
102
}
330
8C50
100
AcDbPlotSettings
  1

  2
SII LP-2150 (D-SCAN C2)
  4

  6

 40
0.0
 41
0.0
 42
0.0
 43
0.0
 44
0.0
 45
0.0
 46
0.0
 47
0.0
 48
0.0
 49
0.0
140
0.0
141
0.0
142
1.0
143
1.0
 70
  1712
 72
     0
 73
     0
 74
     0
  7

 75
     0
147
1.0
148
0.0
149
0.0
100
AcDbLayout
  1
Model
 70
     1
 71
     0
 10
0.0
 20
0.0
 11
12.0
 21
9.0
 12
0.0
 22
0.0
 32
0.0
 14
0.0
 24
0.0
 34
0.0
 15
0.0
 25
0.0
 35
0.0
146
0.0
 13
0.0
 23
0.0
 33
0.0
 16
1.0
 26
0.0
 36
0.0
 17
0.0
 27
1.0
 37
0.0
 76
     0
330
8C55
  0
LAYOUT
  5
8C54
102
{ACAD_REACTORS
330
8C50
102
}
330
8C50
100
AcDbPlotSettings
  1

  2
SII LP-2150 (D-SCAN C2)
  4

  6

 40
0.0
 41
0.0
 42
0.0
 43
0.0
 44
0.0
 45
0.0
 46
0.0
 47
0.0
 48
0.0
 49
0.0
140
0.0
141
0.0
142
1.0
143
1.0
 70
   688
 72
     0
 73
     0
 74
     5
  7

 75
    16
147
1.0
148
0.0
149
0.0
100
AcDbLayout
  1
ﾚｲｱｳﾄ1
 70
     1
 71
     1
 10
-580.5701293945312
 20
0.0
 11
0.0
 21
407.8999938964844
 12
0.0
 22
0.0
 32
0.0
 14
-580.5701293945312
 24
0.0
 34
0.0
 15
0.0
 25
407.8999938964844
 35
0.0
146
0.0
 13
0.0
 23
0.0
 33
0.0
 16
1.0
 26
0.0
 36
0.0
 17
0.0
 27
1.0
 37
0.0
 76
     0
330
8C51
  0
MLINESTYLE
  5
8C4E
102
{ACAD_REACTORS
330
8C4D
102
}
330
8C4D
100
AcDbMlineStyle
  2
STANDARD
 70
     0
  3

 62
   256
 51
90.0
 52
90.0
 71
     2
 49
0.5
 62
   256
  6
BYLAYER
 49
-0.5
 62
   256
  6
BYLAYER
  0
ACDBPLACEHOLDER
  5
8C46
102
{ACAD_REACTORS
330
8C45
102
}
330
8C45
  0
DICTIONARYVAR
  5
8C9C
102
{ACAD_REACTORS
330
8C9B
102
}
330
8C9B
100
DictionaryVariables
280
     0
  1
1
  0
ENDSEC
  0
EOF
