  0
SECTION
  2
HEADER
  9
$ACADVER
  1
AC1015
  9
$ACADMAINTVER
 70
    14
  9
$DWGCODEPAGE
  3
ANSI_932
  9
$INSBASE
 10
0.0
 20
0.0
 30
0.0
  9
$EXTMIN
 10
363.3441850322851
 20
1.113704162433577
 30
-0.0000000000112498
  9
$EXTMAX
 10
912.8947730761424
 20
999.7838685864421
 30
0.0000000000002956
  9
$LIMMIN
 10
0.0
 20
0.0
  9
$LIMMAX
 10
420.0
 20
297.0
  9
$ORTHOMODE
 70
     0
  9
$REGENMODE
 70
     1
  9
$FILLMODE
 70
     1
  9
$QTEXTMODE
 70
     0
  9
$MIRRTEXT
 70
     1
  9
$LTSCALE
 40
1.0
  9
$ATTMODE
 70
     1
  9
$TEXTSIZE
 40
2.5
  9
$TRACEWID
 40
1.0
  9
$TEXTSTYLE
  7
Standard
  9
$CLAYER
  8
0
  9
$CELTYPE
  6
ByLayer
  9
$CECOLOR
 62
   256
  9
$CELTSCALE
 40
1.0
  9
$DISPSILH
 70
     0
  9
$DIMSCALE
 40
1.0
  9
$DIMASZ
 40
2.5
  9
$DIMEXO
 40
0.625
  9
$DIMDLI
 40
3.75
  9
$DIMRND
 40
0.0
  9
$DIMDLE
 40
0.0
  9
$DIMEXE
 40
1.25
  9
$DIMTP
 40
0.0
  9
$DIMTM
 40
0.0
  9
$DIMTXT
 40
2.5
  9
$DIMCEN
 40
2.5
  9
$DIMTSZ
 40
0.0
  9
$DIMTOL
 70
     0
  9
$DIMLIM
 70
     0
  9
$DIMTIH
 70
     0
  9
$DIMTOH
 70
     0
  9
$DIMSE1
 70
     0
  9
$DIMSE2
 70
     0
  9
$DIMTAD
 70
     1
  9
$DIMZIN
 70
     8
  9
$DIMBLK
  1

  9
$DIMASO
 70
     1
  9
$DIMSHO
 70
     1
  9
$DIMPOST
  1

  9
$DIMAPOST
  1

  9
$DIMALT
 70
     0
  9
$DIMALTD
 70
     3
  9
$DIMALTF
 40
0.03937007874016
  9
$DIMLFAC
 40
1.0
  9
$DIMTOFL
 70
     1
  9
$DIMTVP
 40
0.0
  9
$DIMTIX
 70
     0
  9
$DIMSOXD
 70
     0
  9
$DIMSAH
 70
     0
  9
$DIMBLK1
  1

  9
$DIMBLK2
  1

  9
$DIMSTYLE
  2
ISO-25
  9
$DIMCLRD
 70
     0
  9
$DIMCLRE
 70
     0
  9
$DIMCLRT
 70
     0
  9
$DIMTFAC
 40
1.0
  9
$DIMGAP
 40
0.625
  9
$DIMJUST
 70
     0
  9
$DIMSD1
 70
     0
  9
$DIMSD2
 70
     0
  9
$DIMTOLJ
 70
     0
  9
$DIMTZIN
 70
     8
  9
$DIMALTZ
 70
     0
  9
$DIMALTTZ
 70
     0
  9
$DIMUPT
 70
     0
  9
$DIMDEC
 70
     2
  9
$DIMTDEC
 70
     2
  9
$DIMALTU
 70
     2
  9
$DIMALTTD
 70
     3
  9
$DIMTXSTY
  7
Standard
  9
$DIMAUNIT
 70
     0
  9
$DIMADEC
 70
     0
  9
$DIMALTRND
 40
0.0
  9
$DIMAZIN
 70
     0
  9
$DIMDSEP
 70
    44
  9
$DIMATFIT
 70
     3
  9
$DIMFRAC
 70
     0
  9
$DIMLDRBLK
  1

  9
$DIMLUNIT
 70
     2
  9
$DIMLWD
 70
    -2
  9
$DIMLWE
 70
    -2
  9
$DIMTMOVE
 70
     0
  9
$LUNITS
 70
     2
  9
$LUPREC
 70
     4
  9
$SKETCHINC
 40
1.0
  9
$FILLETRAD
 40
10.0
  9
$AUNITS
 70
     0
  9
$AUPREC
 70
     0
  9
$MENU
  1
.
  9
$ELEVATION
 40
0.0
  9
$PELEVATION
 40
0.0
  9
$THICKNESS
 40
0.0
  9
$LIMCHECK
 70
     0
  9
$CHAMFERA
 40
10.0
  9
$CHAMFERB
 40
10.0
  9
$CHAMFERC
 40
20.0
  9
$CHAMFERD
 40
0.0
  9
$SKPOLY
 70
     0
  9
$TDCREATE
 40
2454278.660822835
  9
$TDUCREATE
 40
2454278.285822836
  9
$TDUPDATE
 40
2456899.670791076
  9
$TDUUPDATE
 40
2456899.295791076
  9
$TDINDWG
 40
0.0005077662
  9
$TDUSRTIMER
 40
0.0005077662
  9
$USRTIMER
 70
     1
  9
$ANGBASE
 50
0.0
  9
$ANGDIR
 70
     0
  9
$PDMODE
 70
     0
  9
$PDSIZE
 40
0.0
  9
$PLINEWID
 40
0.0
  9
$SPLFRAME
 70
     0
  9
$SPLINETYPE
 70
     6
  9
$SPLINESEGS
 70
     8
  9
$HANDSEED
  5
1FC
  9
$SURFTAB1
 70
     6
  9
$SURFTAB2
 70
     6
  9
$SURFTYPE
 70
     6
  9
$SURFU
 70
     6
  9
$SURFV
 70
     6
  9
$UCSBASE
  2

  9
$UCSNAME
  2

  9
$UCSORG
 10
0.0
 20
0.0
 30
0.0
  9
$UCSXDIR
 10
1.0
 20
0.0
 30
0.0
  9
$UCSYDIR
 10
0.0
 20
1.0
 30
0.0
  9
$UCSORTHOREF
  2

  9
$UCSORTHOVIEW
 70
     0
  9
$UCSORGTOP
 10
0.0
 20
0.0
 30
0.0
  9
$UCSORGBOTTOM
 10
0.0
 20
0.0
 30
0.0
  9
$UCSORGLEFT
 10
0.0
 20
0.0
 30
0.0
  9
$UCSORGRIGHT
 10
0.0
 20
0.0
 30
0.0
  9
$UCSORGFRONT
 10
0.0
 20
0.0
 30
0.0
  9
$UCSORGBACK
 10
0.0
 20
0.0
 30
0.0
  9
$PUCSBASE
  2

  9
$PUCSNAME
  2

  9
$PUCSORG
 10
0.0
 20
0.0
 30
0.0
  9
$PUCSXDIR
 10
1.0
 20
0.0
 30
0.0
  9
$PUCSYDIR
 10
0.0
 20
1.0
 30
0.0
  9
$PUCSORTHOREF
  2

  9
$PUCSORTHOVIEW
 70
     0
  9
$PUCSORGTOP
 10
0.0
 20
0.0
 30
0.0
  9
$PUCSORGBOTTOM
 10
0.0
 20
0.0
 30
0.0
  9
$PUCSORGLEFT
 10
0.0
 20
0.0
 30
0.0
  9
$PUCSORGRIGHT
 10
0.0
 20
0.0
 30
0.0
  9
$PUCSORGFRONT
 10
0.0
 20
0.0
 30
0.0
  9
$PUCSORGBACK
 10
0.0
 20
0.0
 30
0.0
  9
$USERI1
 70
     0
  9
$USERI2
 70
     0
  9
$USERI3
 70
     0
  9
$USERI4
 70
     0
  9
$USERI5
 70
     0
  9
$USERR1
 40
0.0
  9
$USERR2
 40
0.0
  9
$USERR3
 40
0.0
  9
$USERR4
 40
0.0
  9
$USERR5
 40
0.0
  9
$WORLDVIEW
 70
     1
  9
$SHADEDGE
 70
     3
  9
$SHADEDIF
 70
    70
  9
$TILEMODE
 70
     1
  9
$MAXACTVP
 70
    48
  9
$PINSBASE
 10
0.0
 20
0.0
 30
0.0
  9
$PLIMCHECK
 70
     0
  9
$PEXTMIN
 10
26.66076962115562
 20
20.31135699206657
 30
-0.0015258207003583
  9
$PEXTMAX
 10
240.039213369355
 20
182.8886381005154
 30
0.0000000349246037
  9
$PLIMMIN
 10
-6.350006103515625
 20
-6.349999904632568
  9
$PLIMMAX
 10
273.0499877929687
 20
209.5499939918517
  9
$UNITMODE
 70
     0
  9
$VISRETAIN
 70
     1
  9
$PLINEGEN
 70
     0
  9
$PSLTSCALE
 70
     1
  9
$TREEDEPTH
 70
  3020
  9
$CMLSTYLE
  2
Standard
  9
$CMLJUST
 70
     0
  9
$CMLSCALE
 40
20.0
  9
$PROXYGRAPHICS
 70
     1
  9
$MEASUREMENT
 70
     1
  9
$CELWEIGHT
370
    -1
  9
$ENDCAPS
280
     0
  9
$JOINSTYLE
280
     0
  9
$LWDISPLAY
290
     0
  9
$INSUNITS
 70
     4
  9
$HYPERLINKBASE
  1

  9
$STYLESHEET
  1

  9
$XEDIT
290
     1
  9
$CEPSNTYPE
380
     0
  9
$PSTYLEMODE
290
     1
  9
$FINGERPRINTGUID
  2
{FDEAD578-A652-11D2-9A35-0060089B3A3F}
  9
$VERSIONGUID
  2
{1BF84C26-10C5-4601-B337-AE7E07097370}
  9
$EXTNAMES
290
     1
  9
$PSVPSCALE
 40
0.0
  9
$OLESTARTUP
290
     0
  0
ENDSEC
  0
SECTION
  2
CLASSES
  0
CLASS
  1
ACDBDICTIONARYWDFLT
  2
AcDbDictionaryWithDefault
  3
AutoCAD 2000
 90
        0
280
     0
281
     0
  0
CLASS
  1
ACDBPLACEHOLDER
  2
AcDbPlaceHolder
  3
AutoCAD 2000
 90
        0
280
     0
281
     0
  0
CLASS
  1
LAYOUT
  2
AcDbLayout
  3
AutoCAD 2000
 90
        0
280
     0
281
     0
  0
CLASS
  1
DICTIONARYVAR
  2
AcDbDictionaryVar
  3
AutoCAD 2000
 90
        0
280
     0
281
     0
  0
CLASS
  1
LONG_TRANSACTION
  2
AcDbLongTransaction
  3
AutoCAD 2000
 90
    32768
280
     0
281
     0
  0
CLASS
  1
LWPOLYLINE
  2
AcDbPolyline
  3
AutoCAD 2000
 90
    32768
280
     0
281
     1
  0
CLASS
  1
HATCH
  2
AcDbHatch
  3
AutoCAD 2000
 90
    32768
280
     0
281
     1
  0
CLASS
  1
XRECORD
  2
AcDbXrecord
  3
AutoCAD 2000
 90
    32768
280
     0
281
     0
  0
ENDSEC
  0
SECTION
  2
TABLES
  0
TABLE
  2
VPORT
  5
8
330
0
100
AcDbSymbolTable
 70
     2
  0
VPORT
  5
1FB
330
8
100
AcDbSymbolTableRecord
100
AcDbViewportTableRecord
  2
*Active
 70
     0
 10
0.0
 20
0.0
 11
1.0
 21
1.0
 12
638.1194790542137
 22
500.4487863744379
 13
0.0
 23
0.0
 14
10.0
 24
10.0
 15
10.0
 25
10.0
 16
0.0
 26
0.0
 36
1.0
 17
0.0
 27
0.0
 37
0.0
 40
1005.010927372732
 41
1.592161016949152
 42
50.0
 43
0.0
 44
0.0
 50
0.0
 51
0.0
 71
     0
 72
   100
 73
     1
 74
     3
 75
     0
 76
     0
 77
     0
 78
     0
281
     0
 65
     1
110
0.0
120
0.0
130
0.0
111
1.0
121
0.0
131
0.0
112
0.0
122
1.0
132
0.0
 79
     0
146
0.0
  0
ENDTAB
  0
TABLE
  2
LTYPE
  5
5
330
0
100
AcDbSymbolTable
 70
     2
  0
LTYPE
  5
14
330
5
100
AcDbSymbolTableRecord
100
AcDbLinetypeTableRecord
  2
ByBlock
 70
     0
  3

 72
    65
 73
     0
 40
0.0
  0
LTYPE
  5
15
330
5
100
AcDbSymbolTableRecord
100
AcDbLinetypeTableRecord
  2
ByLayer
 70
     0
  3

 72
    65
 73
     0
 40
0.0
  0
LTYPE
  5
16
330
5
100
AcDbSymbolTableRecord
100
AcDbLinetypeTableRecord
  2
Continuous
 70
     0
  3
Solid line
 72
    65
 73
     0
 40
0.0
  0
LTYPE
  5
1E2
330
5
100
AcDbSymbolTableRecord
100
AcDbLinetypeTableRecord
  2
CENTER
 70
     0
  3
__ . __
 72
    65
 73
     4
 40
7.0
 49
4.0
 74
     0
 49
-1.0
 74
     0
 49
1.0
 74
     0
 49
-1.0
 74
     0
  0
ENDTAB
  0
TABLE
  2
LAYER
  5
2
102
{ACAD_XDICTIONARY
360
1E3
102
}
330
0
100
AcDbSymbolTable
 70
     1
  0
LAYER
  5
10
330
2
100
AcDbSymbolTableRecord
100
AcDbLayerTableRecord
  2
0
 70
     0
 62
     7
  6
Continuous
370
    -3
390
F
  0
ENDTAB
  0
TABLE
  2
STYLE
  5
3
330
0
100
AcDbSymbolTable
 70
     1
  0
STYLE
  5
11
330
3
100
AcDbSymbolTableRecord
100
AcDbTextStyleTableRecord
  2
Standard
 70
     0
 40
0.0
 41
1.0
 50
0.0
 71
     0
 42
2.5
  3
txt
  4

  0
ENDTAB
  0
TABLE
  2
VIEW
  5
6
330
0
100
AcDbSymbolTable
 70
     0
  0
ENDTAB
  0
TABLE
  2
UCS
  5
7
330
0
100
AcDbSymbolTable
 70
     0
  0
ENDTAB
  0
TABLE
  2
APPID
  5
9
330
0
100
AcDbSymbolTable
 70
     2
  0
APPID
  5
12
330
9
100
AcDbSymbolTableRecord
100
AcDbRegAppTableRecord
  2
ACAD
 70
     0
  0
APPID
  5
87
330
9
100
AcDbSymbolTableRecord
100
AcDbRegAppTableRecord
  2
ACAD_PSEXT
 70
     0
  0
ENDTAB
  0
TABLE
  2
DIMSTYLE
  5
A
330
0
100
AcDbSymbolTable
 70
     1
100
AcDbDimStyleTable
 71
     0
  0
DIMSTYLE
105
27
330
A
100
AcDbSymbolTableRecord
100
AcDbDimStyleTableRecord
  2
ISO-25
 70
     0
 41
2.5
 42
0.625
 43
3.75
 44
1.25
 73
     0
 74
     0
 77
     1
 78
     8
140
2.5
141
2.5
143
0.03937007874016
147
0.625
171
     3
172
     1
271
     2
272
     2
274
     3
278
    44
283
     0
284
     8
340
11
  0
ENDTAB
  0
TABLE
  2
BLOCK_RECORD
  5
1
330
0
100
AcDbSymbolTable
 70
     1
  0
BLOCK_RECORD
  5
1F
102
{ACAD_XDICTIONARY
360
19B
102
}
330
1
100
AcDbSymbolTableRecord
100
AcDbBlockTableRecord
  2
*Model_Space
340
22
  0
BLOCK_RECORD
  5
55
102
{ACAD_XDICTIONARY
360
19D
102
}
330
1
100
AcDbSymbolTableRecord
100
AcDbBlockTableRecord
  2
*Paper_Space
340
56
  0
BLOCK_RECORD
  5
50
102
{ACAD_XDICTIONARY
360
19F
102
}
330
1
100
AcDbSymbolTableRecord
100
AcDbBlockTableRecord
  2
*Paper_Space0
340
51
  0
ENDTAB
  0
ENDSEC
  0
SECTION
  2
BLOCKS
  0
BLOCK
  5
20
330
1F
100
AcDbEntity
  8
0
100
AcDbBlockBegin
  2
*Model_Space
 70
     0
 10
0.0
 20
0.0
 30
0.0
  3
*Model_Space
  1

  0
ENDBLK
  5
21
330
1F
100
AcDbEntity
  8
0
100
AcDbBlockEnd
  0
BLOCK
  5
57
330
55
100
AcDbEntity
 67
     1
  8
0
100
AcDbBlockBegin
  2
*Paper_Space
 70
     0
 10
0.0
 20
0.0
 30
0.0
  3
*Paper_Space
  1

  0
ENDBLK
  5
58
330
55
100
AcDbEntity
 67
     1
  8
0
100
AcDbBlockEnd
  0
BLOCK
  5
52
330
50
100
AcDbEntity
  8
0
100
AcDbBlockBegin
  2
*Paper_Space0
 70
     0
 10
0.0
 20
0.0
 30
0.0
  3
*Paper_Space0
  1

  0
VIEWPORT
  5
6B
330
50
100
AcDbEntity
  8
0
100
AcDbViewport
 10
133.3499908447265
 20
101.5999970436096
 30
0.0
 40
381.3957395593834
 41
218.2856291881582
 69
     0
 12
133.3499908447265
 22
101.5999970436096
 13
0.0
 23
0.0
 14
10.0
 24
10.0
 15
10.0
 25
10.0
 16
0.0
 26
0.0
 36
1.0
 17
0.0
 27
0.0
 37
0.0
 42
50.0
 43
0.0
 44
0.0
 45
218.2856291881582
 50
0.0
 51
0.0
 72
   100
 90
    32800
  1

281
     0
 71
     1
 74
     0
110
0.0
120
0.0
130
0.0
111
1.0
121
0.0
131
0.0
112
0.0
122
1.0
132
0.0
 79
     0
146
0.0
  0
VIEWPORT
  5
6D
330
50
100
AcDbEntity
  8
0
100
AcDbViewport
 10
133.349993944168
 20
101.599993944168
 30
0.0
 40
213.3599903106689
 41
162.5599903106689
 69
     0
 12
210.0
 22
148.5
 13
0.0
 23
0.0
 14
10.0
 24
10.0
 15
10.0
 25
10.0
 16
0.0
 26
0.0
 36
1.0
 17
0.0
 27
0.0
 37
0.0
 42
50.0
 43
0.0
 44
0.0
 45
324.0677920111345
 50
0.0
 51
0.0
 72
   100
 90
    32864
  1

281
     0
 71
     1
 74
     0
110
0.0
120
0.0
130
0.0
111
1.0
121
0.0
131
0.0
112
0.0
122
1.0
132
0.0
 79
     0
146
0.0
  0
ENDBLK
  5
53
330
50
100
AcDbEntity
  8
0
100
AcDbBlockEnd
  0
ENDSEC
  0
SECTION
  2
ENTITIES
  0
LINE
  5
111
330
1F
100
AcDbEntity
  8
0
100
AcDbLine
 10
528.8685871004678
 20
715.784088759892
 30
0.0
 11
528.8685871004678
 21
766.2840887598918
 31
0.0
  0
LINE
  5
112
330
1F
100
AcDbEntity
  8
0
100
AcDbLine
 10
533.9752162581005
 20
721.9840399317669
 30
0.0
 11
533.9752531840791
 21
760.0840460352825
 31
0.0
  0
LINE
  5
113
330
1F
100
AcDbEntity
  8
0
100
AcDbLine
 10
528.8685871004678
 20
766.2840887598918
 30
0.0
 11
531.7186221003372
 21
766.2840887598918
 31
0.0
  0
LINE
  5
114
330
1F
100
AcDbEntity
  8
0
100
AcDbLine
 10
531.7186221003372
 20
766.2840887598918
 30
0.0
 11
533.9752531840791
 21
760.0840460352825
 31
0.0
  0
LINE
  5
115
330
1F
100
AcDbEntity
  8
0
100
AcDbLine
 10
533.9752531840791
 20
760.0840460352825
 30
0.0
 11
549.9467195174968
 21
760.0840460352828
 31
0.0
  0
LINE
  5
116
330
1F
100
AcDbEntity
  8
0
100
AcDbLine
 10
528.8685871004678
 20
715.784088759892
 30
0.0
 11
531.7186184968282
 21
715.784088759892
 31
0.0
  0
LINE
  5
117
330
1F
100
AcDbEntity
  8
0
100
AcDbLine
 10
531.7186184968282
 20
715.784088759892
 30
0.0
 11
533.9752162581005
 21
721.9840399317669
 31
0.0
  0
LINE
  5
118
330
1F
100
AcDbEntity
  8
0
100
AcDbLine
 10
533.9752162581005
 20
721.9840399317669
 30
0.0
 11
549.9467551678223
 21
721.984039931767
 31
0.0
  0
LINE
  5
119
330
1F
100
AcDbEntity
  8
0
100
AcDbLine
 10
546.3685871004684
 20
183.8227888028264
 30
0.0
 11
651.3685871004684
 21
183.8227888028264
 31
0.0
  0
LINE
  5
11A
330
1F
100
AcDbEntity
  8
0
100
AcDbLine
 10
546.3685871004684
 20
200.8227888028264
 30
0.0
 11
651.3685871004684
 21
200.8227888028264
 31
0.0
  0
LINE
  5
11B
330
1F
100
AcDbEntity
  8
0
100
AcDbLine
 10
546.3685871004684
 20
200.8227888028264
 30
0.0
 11
546.3685871004684
 21
183.8227888028264
 31
0.0
  0
LINE
  5
11C
330
1F
100
AcDbEntity
  8
0
100
AcDbLine
 10
651.3685871004684
 20
200.8227888028264
 30
0.0
 11
651.3685871004684
 21
183.8227888028264
 31
0.0
  0
LINE
  5
11D
330
1F
100
AcDbEntity
  8
0
100
AcDbLine
 10
638.8685871004684
 20
180.5227988028264
 30
0.0
 11
663.7619858104553
 21
180.5227988028264
 31
0.0
  0
LINE
  5
11E
330
1F
100
AcDbEntity
  8
0
100
AcDbLine
 10
558.8685871004684
 20
183.8227888028264
 30
0.0
 11
558.8685871004684
 21
139.1228088028265
 31
0.0
  0
LINE
  5
11F
330
1F
100
AcDbEntity
  8
0
100
AcDbLine
 10
668.8685871004683
 20
186.7227488028266
 30
0.0
 11
666.0186006898735
 21
186.7227488028266
 31
0.0
  0
LINE
  5
120
330
1F
100
AcDbEntity
  8
0
100
AcDbLine
 10
666.0186006898735
 20
186.7227488028266
 30
0.0
 11
663.7619858104553
 21
180.5227988028264
 31
0.0
  0
LINE
  5
121
330
1F
100
AcDbEntity
  8
0
100
AcDbLine
 10
668.8685871004683
 20
136.2227788028265
 30
0.0
 11
666.0186452461032
 21
136.2227788028265
 31
0.0
  0
LINE
  5
122
330
1F
100
AcDbEntity
  8
0
100
AcDbLine
 10
666.0186452461032
 20
136.2227788028265
 30
0.0
 11
663.7619872518357
 21
142.4228188028265
 31
0.0
  0
LINE
  5
123
330
1F
100
AcDbEntity
  8
0
100
AcDbLine
 10
663.7619872518357
 20
142.4228188028265
 30
0.0
 11
638.8685871004684
 21
142.4228188028265
 31
0.0
  0
LINE
  5
124
330
1F
100
AcDbEntity
  8
0
100
AcDbLine
 10
638.8685871004684
 20
183.8227888028264
 30
0.0
 11
638.8685871004684
 21
139.1228088028265
 31
0.0
  0
LINE
  5
125
330
1F
100
AcDbEntity
  8
0
100
AcDbLine
 10
668.8685871004683
 20
186.7227488028266
 30
0.0
 11
668.8685871004683
 21
136.2227788028265
 31
0.0
  0
LINE
  5
126
330
1F
100
AcDbEntity
  8
0
100
AcDbLine
 10
546.3685871004684
 20
122.1228088028265
 30
0.0
 11
651.3685871004684
 21
122.1228088028265
 31
0.0
  0
LINE
  5
127
330
1F
100
AcDbEntity
  8
0
100
AcDbLine
 10
546.3685871004684
 20
139.1228088028265
 30
0.0
 11
651.3685871004684
 21
139.1228088028265
 31
0.0
  0
LINE
  5
128
330
1F
100
AcDbEntity
  8
0
100
AcDbLine
 10
546.3685871004684
 20
139.1228088028265
 30
0.0
 11
546.3685871004684
 21
122.1228088028265
 31
0.0
  0
LINE
  5
129
330
1F
100
AcDbEntity
  8
0
100
AcDbLine
 10
651.3685871004684
 20
139.1228088028265
 30
0.0
 11
651.3685871004684
 21
122.1228088028265
 31
0.0
  0
LINE
  5
12A
330
1F
100
AcDbEntity
  8
0
100
AcDbLine
 10
666.0186006898735
 20
186.7227488028266
 30
0.0
 11
666.0186006898735
 21
136.2227788028265
 31
0.0
  0
LINE
  5
12B
330
1F
100
AcDbEntity
  8
0
100
AcDbLine
 10
663.7619858104553
 20
180.5227988028264
 30
0.0
 11
663.7619858104553
 21
142.4228227629372
 31
0.0
  0
LINE
  5
12C
330
1F
100
AcDbEntity
  8
0
100
AcDbLine
 10
624.1185871004684
 20
29.77282880282661
 30
0.0
 11
573.6185871004684
 21
29.77282880282661
 31
0.0
  0
LINE
  5
12D
330
1F
100
AcDbEntity
  8
0
100
AcDbLine
 10
624.1185871004684
 20
29.77282880282661
 30
0.0
 11
624.1185871004684
 21
32.62280003720739
 31
0.0
  0
LINE
  5
12E
330
1F
100
AcDbEntity
  8
0
100
AcDbLine
 10
617.9186371004682
 20
72.48763441681683
 30
0.0
 11
623.8685118307505
 21
75.92278880282655
 31
0.0
  0
LINE
  5
12F
330
1F
100
AcDbEntity
  8
0
100
AcDbLine
 10
579.8186671004682
 20
72.48758926346366
 30
0.0
 11
573.8687035004126
 21
75.92278880282657
 31
0.0
  0
LINE
  5
130
330
1F
100
AcDbEntity
  8
0
100
AcDbLine
 10
558.8685871004684
 20
122.1228088028265
 30
0.0
 11
558.8685871004684
 21
99.77282880282661
 31
0.0
  0
LINE
  5
131
330
1F
100
AcDbEntity
  8
0
100
AcDbLine
 10
569.5396071004682
 20
80.02942501020719
 30
0.0
 11
569.5396071004685
 21
75.92278880282657
 31
0.0
  0
LINE
  5
132
330
1F
100
AcDbEntity
  8
0
100
AcDbLine
 10
531.718666668172
 20
125.0227688028265
 30
0.0
 11
533.9752660120861
 21
118.8228188028265
 31
0.0
  0
LINE
  5
133
330
1F
100
AcDbEntity
  8
0
100
AcDbLine
 10
617.9186371004682
 20
72.48763441681683
 30
0.0
 11
617.9186371004682
 21
34.8794330150741
 31
0.0
  0
LINE
  5
134
330
1F
100
AcDbEntity
  8
0
100
AcDbLine
 10
528.8685871004684
 20
125.0227688028265
 30
0.0
 11
531.718666668172
 21
125.0227688028265
 31
0.0
  0
LINE
  5
135
330
1F
100
AcDbEntity
  8
0
100
AcDbLine
 10
624.1185871004684
 20
32.62280003720739
 30
0.0
 11
617.9186371004682
 21
34.8794330150741
 31
0.0
  0
LINE
  5
136
330
1F
100
AcDbEntity
  8
0
100
AcDbLine
 10
573.6185871004684
 20
29.77282880282661
 30
0.0
 11
573.6185871004684
 21
32.62282098312719
 31
0.0
  0
LINE
  5
137
330
1F
100
AcDbEntity
  8
0
100
AcDbLine
 10
573.6185871004684
 20
32.62282098312719
 30
0.0
 11
579.8186671004682
 21
34.87947930821829
 31
0.0
  0
LINE
  5
138
330
1F
100
AcDbEntity
  8
0
100
AcDbLine
 10
533.9752660120861
 20
118.8228188028265
 30
0.0
 11
558.8685871004683
 21
118.8228188028265
 31
0.0
  0
LINE
  5
139
330
1F
100
AcDbEntity
  8
0
100
AcDbLine
 10
628.1975671004683
 20
80.02941846171479
 30
0.0
 11
628.1975671004683
 21
75.92278880282655
 31
0.0
  0
LINE
  5
13A
330
1F
100
AcDbEntity
  8
0
100
AcDbLine
 10
579.8186671004682
 20
72.48758926346366
 30
0.0
 11
579.8186671004682
 21
34.87947930821829
 31
0.0
  0
LINE
  5
13B
330
1F
100
AcDbEntity
  8
0
100
AcDbLine
 10
569.5396071004685
 20
75.92278880282657
 30
0.0
 11
628.1975671004683
 21
75.92278880282655
 31
0.0
  0
LINE
  5
13C
330
1F
100
AcDbEntity
  8
0
100
AcDbLine
 10
638.8685871004683
 20
122.1228088028265
 30
0.0
 11
638.8685871004684
 21
99.77282880282661
 31
0.0
  0
LINE
  5
13D
330
1F
100
AcDbEntity
  8
0
100
AcDbLine
 10
531.7185509588662
 20
74.52276880282653
 30
0.0
 11
533.9751746245645
 21
80.72283880282665
 31
0.0
  0
LINE
  5
13E
330
1F
100
AcDbEntity
  8
0
100
AcDbLine
 10
528.8685871004684
 20
74.52276880282653
 30
0.0
 11
531.7185509588662
 21
74.52276880282653
 31
0.0
  0
LINE
  5
13F
330
1F
100
AcDbEntity
  8
0
100
AcDbLine
 10
533.9751746245645
 20
80.72283880282665
 30
0.0
 11
568.5381011714371
 21
80.72283880282663
 31
0.0
  0
LINE
  5
140
330
1F
100
AcDbEntity
  8
0
100
AcDbLine
 10
528.8685871004684
 20
125.0227688028265
 30
0.0
 11
528.8685871004684
 21
74.52276880282653
 31
0.0
  0
ARC
  5
141
330
1F
100
AcDbEntity
  8
0
100
AcDbCircle
 10
582.4685671004683
 20
99.77282880282661
 30
0.0
 40
23.6
100
AcDbArc
 50
180.0
 51
236.7812319544137
  0
ARC
  5
142
330
1F
100
AcDbEntity
  8
0
100
AcDbCircle
 10
615.2686171004684
 20
99.77282880282661
 30
0.0
 40
23.6
100
AcDbArc
 50
303.2187390253743
 51
0.0
  0
LINE
  5
143
330
1F
100
AcDbEntity
  8
0
100
AcDbLine
 10
531.718666668172
 20
125.0227688028265
 30
0.0
 11
531.7185509588662
 21
74.52276880282653
 31
0.0
  0
LINE
  5
144
330
1F
100
AcDbEntity
  8
0
100
AcDbLine
 10
533.9751746245645
 20
80.72283880282665
 30
0.0
 11
533.9752660120861
 21
118.8228188028265
 31
0.0
  0
LINE
  5
145
330
1F
100
AcDbEntity
  8
0
100
AcDbLine
 10
579.8186671004682
 20
34.87947930821829
 30
0.0
 11
617.9186371004682
 21
34.87947930821829
 31
0.0
  0
LINE
  5
146
330
1F
100
AcDbEntity
  8
0
100
AcDbLine
 10
573.6185871004684
 20
32.62282098312719
 30
0.0
 11
624.1185295529376
 21
32.62282098312719
 31
0.0
  0
LINE
  5
147
330
1F
100
AcDbEntity
  8
0
100
AcDbLine
 10
579.8186671004682
 20
72.48758926346366
 30
0.0
 11
617.9186371004682
 21
72.48763441681683
 31
0.0
  0
LINE
  5
148
330
1F
100
AcDbEntity
  8
0
100
AcDbLine
 10
668.8685871004682
 20
766.2840887598921
 30
0.0
 11
668.8685871004683
 21
715.7840887598922
 31
0.0
  0
LINE
  5
149
330
1F
100
AcDbEntity
  8
0
100
AcDbLine
 10
668.8685871004683
 20
715.7840887598922
 30
0.0
 11
666.0185521005989
 21
715.7840887598922
 31
0.0
  0
LINE
  5
14A
330
1F
100
AcDbEntity
  8
0
100
AcDbLine
 10
666.0185521005989
 20
715.7840887598922
 30
0.0
 11
663.761921016857
 21
721.9841314845016
 31
0.0
  0
LINE
  5
14B
330
1F
100
AcDbEntity
  8
0
100
AcDbLine
 10
663.761921016857
 20
721.9841314845016
 30
0.0
 11
647.7904546834396
 21
721.9841314845016
 31
0.0
  0
LINE
  5
14C
330
1F
100
AcDbEntity
  8
0
100
AcDbLine
 10
668.8685871004683
 20
766.2840887598921
 30
0.0
 11
666.0185557041079
 21
766.2840887598921
 31
0.0
  0
LINE
  5
14D
330
1F
100
AcDbEntity
  8
0
100
AcDbLine
 10
666.0185557041079
 20
766.2840887598921
 30
0.0
 11
663.7619579428356
 21
760.0841375880172
 31
0.0
  0
LINE
  5
14E
330
1F
100
AcDbEntity
  8
0
100
AcDbLine
 10
663.7619579428356
 20
760.0841375880172
 30
0.0
 11
647.790419033114
 21
760.0841375880172
 31
0.0
  0
LINE
  5
14F
330
1F
100
AcDbEntity
  8
0
100
AcDbLine
 10
582.398283107663
 20
211.5227388028264
 30
0.0
 11
615.3388910932737
 21
211.5227388028263
 31
0.0
  0
LINE
  5
150
330
1F
100
AcDbEntity
  8
0
100
AcDbLine
 10
587.8685271004684
 20
215.6502988028264
 30
0.0
 11
587.8685271004684
 21
211.5227388028264
 31
0.0
  0
LINE
  5
151
330
1F
100
AcDbEntity
  8
0
100
AcDbLine
 10
582.3685271004684
 20
244.3502488028264
 30
0.0
 11
582.3685271004684
 21
216.6502988028264
 31
0.0
  0
LINE
  5
152
330
1F
100
AcDbEntity
  8
0
100
AcDbLine
 10
564.3386171004683
 20
259.3531788028264
 30
0.0
 11
584.8083471004684
 21
259.3531788028264
 31
0.0
  0
LINE
  5
153
330
1F
100
AcDbEntity
  8
0
100
AcDbLine
 10
548.8685271004684
 20
255.9721988028264
 30
0.0
 11
548.8685271004684
 21
246.3502488028264
 31
0.0
  0
LINE
  5
154
330
1F
100
AcDbEntity
  8
0
100
AcDbLine
 10
614.3686471004683
 20
215.6502988028264
 30
0.0
 11
583.3685271004684
 21
215.6502988028264
 31
0.0
  0
LINE
  5
155
330
1F
100
AcDbEntity
  8
0
100
AcDbLine
 10
563.9704571004683
 20
258.4978388028264
 30
0.0
 11
563.9704571004683
 21
244.3502488028264
 31
0.0
  0
LINE
  5
156
330
1F
100
AcDbEntity
  8
0
100
AcDbLine
 10
550.4099071004684
 20
259.3531788028264
 30
0.0
 11
550.4099071004684
 21
244.4035419179564
 31
0.0
  0
LINE
  5
157
330
1F
100
AcDbEntity
  8
0
100
AcDbLine
 10
585.3078571004685
 20
258.3135088028264
 30
0.0
 11
585.3078571004685
 21
244.3502488028264
 31
0.0
  0
LINE
  5
158
330
1F
100
AcDbEntity
  8
0
100
AcDbLine
 10
612.3685871004684
 20
268.6503288028263
 30
0.0
 11
585.3686471004684
 21
268.6503288028263
 31
0.0
  0
LINE
  5
159
330
1F
100
AcDbEntity
  8
0
100
AcDbLine
 10
646.8686471004684
 20
244.3502488028264
 30
0.0
 11
550.8685271004684
 21
244.3502488028264
 31
0.0
  0
LINE
  5
15A
330
1F
100
AcDbEntity
  8
0
100
AcDbLine
 10
582.398283107663
 20
211.5227388028264
 30
0.0
 11
558.3685871004685
 21
201.3227549367769
 31
0.0
  0
ARC
  5
15B
330
1F
100
AcDbEntity
  8
0
100
AcDbCircle
 10
598.8685871004683
 20
139.3531188028264
 30
0.0
 40
130.0
100
AcDbArc
 50
95.96069199999787
 51
111.1002100000001
  0
ARC
  5
15C
330
1F
100
AcDbEntity
  8
0
100
AcDbCircle
 10
553.8685271004684
 20
255.9721988028264
 30
0.0
 40
5.0
100
AcDbArc
 50
111.1000500000023
 51
180.0
  0
ARC
  5
15D
330
1F
100
AcDbEntity
  8
0
100
AcDbCircle
 10
583.3685271004684
 20
216.6502988028264
 30
0.0
 40
1.0
100
AcDbArc
 50
180.0
 51
270.0
  0
ARC
  5
15E
330
1F
100
AcDbEntity
  8
0
100
AcDbCircle
 10
550.8685271004684
 20
246.3502488028264
 30
0.0
 40
2.0
100
AcDbArc
 50
180.0
 51
270.0
  0
ARC
  5
15F
330
1F
100
AcDbEntity
  8
0
100
AcDbCircle
 10
549.1851771004684
 20
263.3531788028264
 30
0.0
 40
4.0
100
AcDbArc
 50
286.9699299999981
 51
293.5930300000019
  0
ELLIPSE
  5
160
330
1F
100
AcDbEntity
  8
0
100
AcDbEllipse
 10
561.6293971004684
 20
259.3531188028264
 30
0.0
 11
-2.3410642
 21
-0.0000000000001137
 31
0.0
210
0.0
220
0.0
230
1.0
 40
0.55615733
 41
3.1416395
 42
4.712388999999999
  0
ELLIPSE
  5
161
330
1F
100
AcDbEntity
  8
0
100
AcDbEllipse
 10
598.8684971004683
 20
259.3531788028264
 30
0.0
 11
-13.560591
 21
0.0
 31
0.0
210
0.0
220
0.0
230
1.0
 40
0.096013513
 41
4.7123822
 42
6.283185299999999
  0
ELLIPSE
  5
162
330
1F
100
AcDbEntity
  8
0
100
AcDbEllipse
 10
561.6293971004684
 20
259.3531188028264
 30
0.0
 11
-11.21952599999999
 21
-0.0000000000001137
 31
0.0
210
0.0
220
0.0
230
1.0
 40
0.11604768
 41
4.712388999999999
 42
6.2831384
  0
LINE
  5
163
330
1F
100
AcDbEntity
  8
0
100
AcDbLine
 10
558.3685871004685
 20
201.3227549367769
 30
0.0
 11
558.3685871004684
 21
200.8227888028264
 31
0.0
  0
LINE
  5
164
330
1F
100
AcDbEntity
  8
0
100
AcDbLine
 10
609.8686471004683
 20
215.6502988028264
 30
0.0
 11
609.8686471004683
 21
211.5227388028264
 31
0.0
  0
LINE
  5
165
330
1F
100
AcDbEntity
  8
0
100
AcDbLine
 10
615.3686471004683
 20
244.3502488028264
 30
0.0
 11
615.3686471004683
 21
216.6502988028264
 31
0.0
  0
LINE
  5
166
330
1F
100
AcDbEntity
  8
0
100
AcDbLine
 10
633.3985571004684
 20
259.3531788028264
 30
0.0
 11
612.9288271004684
 21
259.3531788028264
 31
0.0
  0
LINE
  5
167
330
1F
100
AcDbEntity
  8
0
100
AcDbLine
 10
648.8686471004683
 20
255.9721988028264
 30
0.0
 11
648.8686471004683
 21
246.3502488028264
 31
0.0
  0
LINE
  5
168
330
1F
100
AcDbEntity
  8
0
100
AcDbLine
 10
633.7667171004684
 20
258.4978388028264
 30
0.0
 11
633.7667171004684
 21
244.3502488028264
 31
0.0
  0
LINE
  5
169
330
1F
100
AcDbEntity
  8
0
100
AcDbLine
 10
647.3272671004683
 20
259.3531788028264
 30
0.0
 11
647.3272671004683
 21
244.4035419179564
 31
0.0
  0
LINE
  5
16A
330
1F
100
AcDbEntity
  8
0
100
AcDbLine
 10
612.4293171004683
 20
258.3135088028264
 30
0.0
 11
612.4293171004683
 21
244.3502488028264
 31
0.0
  0
LINE
  5
16B
330
1F
100
AcDbEntity
  8
0
100
AcDbLine
 10
615.3388910932737
 20
211.5227388028264
 30
0.0
 11
639.3685871004683
 21
201.3227549367769
 31
0.0
  0
ARC
  5
16C
330
1F
100
AcDbEntity
  8
0
100
AcDbCircle
 10
598.8685871004683
 20
139.3531188028264
 30
0.0
 40
130.0
100
AcDbArc
 50
68.89978999999986
 51
84.03930800000214
  0
ARC
  5
16D
330
1F
100
AcDbEntity
  8
0
100
AcDbCircle
 10
643.8686471004683
 20
255.9721988028264
 30
0.0
 40
5.0
100
AcDbArc
 50
0.0
 51
68.89995000000459
  0
ARC
  5
16E
330
1F
100
AcDbEntity
  8
0
100
AcDbCircle
 10
614.3686471004683
 20
216.6502988028264
 30
0.0
 40
1.0
100
AcDbArc
 50
270.0
 51
0.0
  0
ARC
  5
16F
330
1F
100
AcDbEntity
  8
0
100
AcDbCircle
 10
646.8686471004684
 20
246.3502488028264
 30
0.0
 40
2.0
100
AcDbArc
 50
270.0
 51
0.0
  0
ELLIPSE
  5
170
330
1F
100
AcDbEntity
  8
0
100
AcDbEllipse
 10
636.1077771004683
 20
259.3531188028264
 30
0.0
 11
2.3410642
 21
-0.0000000000001137
 31
0.0
210
0.0
220
0.0
230
-1.0
 40
0.55615733
 41
3.1416395
 42
4.712388999999999
  0
ELLIPSE
  5
171
330
1F
100
AcDbEntity
  8
0
100
AcDbEllipse
 10
598.8686771004684
 20
259.3531788028264
 30
0.0
 11
13.560591
 21
0.0
 31
0.0
210
0.0
220
0.0
230
-1.0
 40
0.096013513
 41
4.7123822
 42
6.283185299999999
  0
ELLIPSE
  5
172
330
1F
100
AcDbEntity
  8
0
100
AcDbEllipse
 10
636.1077771004683
 20
259.3531188028264
 30
0.0
 11
11.21952599999999
 21
-0.0000000000001137
 31
0.0
210
0.0
220
0.0
230
-1.0
 40
0.11604768
 41
4.712388999999999
 42
6.2831384
  0
LINE
  5
173
330
1F
100
AcDbEntity
  8
0
100
AcDbLine
 10
639.3685871004683
 20
201.3227549367769
 30
0.0
 11
639.3685871004683
 21
200.8227888028264
 31
0.0
  0
LINE
  5
174
330
1F
100
AcDbEntity
  8
0
100
AcDbLine
 10
569.5396071004685
 20
80.02942501020758
 30
0.0
 11
628.1975671004683
 21
80.02942501020756
 31
0.0
  0
ARC
  5
175
330
1F
100
AcDbEntity
  8
0
100
AcDbCircle
 10
598.8685871004681
 20
741.0340887598921
 30
0.0
 40
50.0
100
AcDbArc
 50
18.25446800000064
 51
41.74553200000209
  0
ARC
  5
176
330
1F
100
AcDbEntity
  8
0
100
AcDbCircle
 10
598.8685871004681
 20
741.0340887598921
 30
0.0
 40
50.0
100
AcDbArc
 50
78.25445200000103
 51
101.7455499999988
  0
ARC
  5
177
330
1F
100
AcDbEntity
  8
0
100
AcDbCircle
 10
598.8685871004681
 20
741.0340887598921
 30
0.0
 40
50.0
100
AcDbArc
 50
258.2544500000011
 51
281.7455499999989
  0
ARC
  5
178
330
1F
100
AcDbEntity
  8
0
100
AcDbCircle
 10
598.8685871004681
 20
741.0340887598921
 30
0.0
 40
50.0
100
AcDbArc
 50
318.2544699999979
 51
341.7455299999978
  0
ARC
  5
179
330
1F
100
AcDbEntity
  8
0
100
AcDbCircle
 10
598.8685871004681
 20
741.0340887598921
 30
0.0
 40
50.0
100
AcDbArc
 50
198.2544699999998
 51
221.7455300000021
  0
ARC
  5
17A
330
1F
100
AcDbEntity
  8
0
100
AcDbCircle
 10
598.8685871004681
 20
741.0340887598921
 30
0.0
 40
50.0
100
AcDbArc
 50
138.2544699999979
 51
161.7455299999978
  0
ARC
  5
17B
330
1F
100
AcDbEntity
  8
0
100
AcDbCircle
 10
555.1835271004681
 20
755.443028759892
 30
0.0
 40
4.0
100
AcDbArc
 50
161.7454499999974
 51
216.0237099999992
  0
ARC
  5
17C
330
1F
100
AcDbEntity
  8
0
100
AcDbCircle
 10
535.3685871004682
 20
741.0340887598921
 30
0.0
 40
20.5
100
AcDbArc
 50
0.0
 51
36.02369899999949
  0
ARC
  5
17D
330
1F
100
AcDbEntity
  8
0
100
AcDbCircle
 10
535.3685871004682
 20
741.0340887598921
 30
0.0
 40
20.5
100
AcDbArc
 50
323.9762999999975
 51
0.0
  0
ARC
  5
17E
330
1F
100
AcDbEntity
  8
0
100
AcDbCircle
 10
555.1835271004681
 20
726.6251587598921
 30
0.0
 40
4.0
100
AcDbArc
 50
143.9762900000007
 51
198.2545500000025
  0
ARC
  5
17F
330
1F
100
AcDbEntity
  8
0
100
AcDbCircle
 10
662.3685881004681
 20
741.0340887598921
 30
0.0
 40
20.5
100
AcDbArc
 50
180.0
 51
216.0237000000024
  0
ARC
  5
180
330
1F
100
AcDbEntity
  8
0
100
AcDbCircle
 10
567.1185871004682
 20
686.0414587598921
 30
0.0
 40
20.5
100
AcDbArc
 50
60.00000600000062
 51
96.0236790000013
  0
ARC
  5
181
330
1F
100
AcDbEntity
  8
0
100
AcDbCircle
 10
567.1185871004682
 20
686.0414587598921
 30
0.0
 40
20.5
100
AcDbArc
 50
23.97630199999884
 51
60.00000600000062
  0
ARC
  5
182
330
1F
100
AcDbEntity
  8
0
100
AcDbCircle
 10
630.6185871004681
 20
686.0414587598921
 30
0.0
 40
20.5
100
AcDbArc
 50
83.97632099999871
 51
119.9999900000004
  0
ARC
  5
183
330
1F
100
AcDbEntity
  8
0
100
AcDbCircle
 10
630.6185871004681
 20
686.0414587598921
 30
0.0
 40
20.5
100
AcDbArc
 50
119.9999900000004
 51
156.0237000000007
  0
ARC
  5
184
330
1F
100
AcDbEntity
  8
0
100
AcDbCircle
 10
662.3685881004681
 20
741.0340887598921
 30
0.0
 40
20.5
100
AcDbArc
 50
143.9762999999975
 51
180.0
  0
ARC
  5
185
330
1F
100
AcDbEntity
  8
0
100
AcDbCircle
 10
630.6185871004681
 20
796.026708759892
 30
0.0
 40
20.5
100
AcDbArc
 50
203.9762999999992
 51
239.9999800000016
  0
ARC
  5
186
330
1F
100
AcDbEntity
  8
0
100
AcDbCircle
 10
630.6185871004681
 20
796.026708759892
 30
0.0
 40
20.5
100
AcDbArc
 50
239.9999800000016
 51
276.0236800000004
  0
ARC
  5
187
330
1F
100
AcDbEntity
  8
0
100
AcDbCircle
 10
567.1185871004682
 20
796.026708759892
 30
0.0
 40
20.5
100
AcDbArc
 50
263.9763199999995
 51
300.0000199999983
  0
ARC
  5
188
330
1F
100
AcDbEntity
  8
0
100
AcDbCircle
 10
567.1185871004682
 20
796.026708759892
 30
0.0
 40
20.5
100
AcDbArc
 50
300.0000199999983
 51
336.0237000000007
  0
ARC
  5
189
330
1F
100
AcDbEntity
  8
0
100
AcDbCircle
 10
564.5475471004681
 20
771.6619587598921
 30
0.0
 40
4.0
100
AcDbArc
 50
83.97636199999977
 51
138.2544
  0
ARC
  5
18A
330
1F
100
AcDbEntity
  8
0
100
AcDbCircle
 10
589.5045771004681
 20
786.070898759892
 30
0.0
 40
4.0
100
AcDbArc
 50
101.7456099999993
 51
156.0238400000001
  0
ARC
  5
18B
330
1F
100
AcDbEntity
  8
0
100
AcDbCircle
 10
608.2325971004681
 20
786.070898759892
 30
0.0
 40
4.0
100
AcDbArc
 50
23.97615899999967
 51
78.25439200000099
  0
ARC
  5
18C
330
1F
100
AcDbEntity
  8
0
100
AcDbCircle
 10
642.5535871004681
 20
755.443028759892
 30
0.0
 40
4.0
100
AcDbArc
 50
323.9762900000007
 51
18.25458899999953
  0
ARC
  5
18D
330
1F
100
AcDbEntity
  8
0
100
AcDbCircle
 10
633.1895671004681
 20
771.6619587598921
 30
0.0
 40
4.0
100
AcDbArc
 50
41.74560299999896
 51
96.02374700000039
  0
ARC
  5
18E
330
1F
100
AcDbEntity
  8
0
100
AcDbCircle
 10
642.5535871004681
 20
726.6251587598921
 30
0.0
 40
4.0
100
AcDbArc
 50
341.7454100000006
 51
36.02370999999925
  0
ARC
  5
18F
330
1F
100
AcDbEntity
  8
0
100
AcDbCircle
 10
608.2325971004681
 20
695.9972587598921
 30
0.0
 40
4.0
100
AcDbArc
 50
281.7456499999991
 51
336.023640000001
  0
ARC
  5
190
330
1F
100
AcDbEntity
  8
0
100
AcDbCircle
 10
633.1895671004681
 20
710.4061887598921
 30
0.0
 40
4.0
100
AcDbArc
 50
263.9762500000019
 51
318.2543999999999
  0
ARC
  5
191
330
1F
100
AcDbEntity
  8
0
100
AcDbCircle
 10
589.5045771004681
 20
695.9972587598921
 30
0.0
 40
4.0
100
AcDbArc
 50
203.9763599999989
 51
258.2543500000007
  0
ARC
  5
192
330
1F
100
AcDbEntity
  8
0
100
AcDbCircle
 10
564.5475471004681
 20
710.4061887598921
 30
0.0
 40
4.0
100
AcDbArc
 50
221.7455999999999
 51
276.0236399999982
  0
CIRCLE
  5
193
330
1F
100
AcDbEntity
  8
0
100
AcDbCircle
 10
598.8685871004681
 20
741.0340887598921
 30
0.0
 40
13.5
  0
CIRCLE
  5
194
330
1F
100
AcDbEntity
  8
0
100
AcDbCircle
 10
598.8685871004681
 20
741.0340887598921
 30
0.0
 40
52.5
  0
TEXT
  5
195
330
1F
100
AcDbEntity
  8
0
  6
Continuous
100
AcDbText
 10
363.3656160474465
 20
951.7686062070032
 30
0.0
 40
48.000002
  1
DAS3J 1.5S
 41
1.32095
100
AcDbText
  0
LINE
  5
1EE
330
1F
100
AcDbEntity
  8
0
  6
CENTER
100
AcDbLine
 10
598.8685871004681
 20
665.3744399954482
 30
0.0
 11
598.8685871004681
 21
816.6937375243358
 31
0.0
  0
LINE
  5
1EF
330
1F
100
AcDbEntity
  8
0
  6
CENTER
100
AcDbLine
 10
517.1009404946214
 20
741.0340887598921
 30
0.0
 11
680.6362337063148
 21
741.0340887598921
 31
0.0
  0
LINE
  5
1F0
330
1F
100
AcDbEntity
  8
0
  6
CENTER
100
AcDbLine
 10
502.8707177781907
 20
99.77276880282653
 30
0.0
 11
650.6362337063151
 21
99.77276880282653
 31
0.0
  0
LINE
  5
1F1
330
1F
100
AcDbEntity
  8
0
  6
CENTER
100
AcDbLine
 10
598.8685871004683
 20
1.161748524982385
 30
0.0
 11
598.8685871004683
 21
290.4961647768227
 31
0.0
  0
LINE
  5
1F2
330
1F
100
AcDbEntity
  8
0
  6
CENTER
100
AcDbLine
 10
543.0549348521494
 20
161.4727638028266
 30
0.0
 11
690.8156526798125
 21
161.4727638028266
 31
0.0
  0
VIEWPORT
  5
71
330
55
100
AcDbEntity
 67
     1
  8
0
100
AcDbViewport
 10
133.3499908447265
 20
101.5999970436096
 30
0.0
 40
381.3957395593834
 41
218.2856291881582
 68
     1
 69
     1
 12
133.3499908447265
 22
101.5999970436096
 13
0.0
 23
0.0
 14
10.0
 24
10.0
 15
10.0
 25
10.0
 16
0.0
 26
0.0
 36
1.0
 17
0.0
 27
0.0
 37
0.0
 42
50.0
 43
0.0
 44
0.0
 45
218.2856291881582
 50
0.0
 51
0.0
 72
   100
 90
    32800
  1

281
     0
 71
     1
 74
     0
110
0.0
120
0.0
130
0.0
111
1.0
121
0.0
131
0.0
112
0.0
122
1.0
132
0.0
 79
     0
146
0.0
  0
VIEWPORT
  5
73
330
55
100
AcDbEntity
 67
     1
  8
0
100
AcDbViewport
 10
133.349993944168
 20
101.599993944168
 30
0.0
 40
213.3599903106689
 41
162.5599903106689
 68
     2
 69
     2
 12
210.0
 22
148.5
 13
0.0
 23
0.0
 14
10.0
 24
10.0
 15
10.0
 25
10.0
 16
0.0
 26
0.0
 36
1.0
 17
0.0
 27
0.0
 37
0.0
 42
50.0
 43
0.0
 44
0.0
 45
324.0677920111345
 50
0.0
 51
0.0
 72
   100
 90
    32864
  1

281
     0
 71
     1
 74
     0
110
0.0
120
0.0
130
0.0
111
1.0
121
0.0
131
0.0
112
0.0
122
1.0
132
0.0
 79
     0
146
0.0
  0
ENDSEC
  0
SECTION
  2
OBJECTS
  0
DICTIONARY
  5
C
330
0
100
AcDbDictionary
281
     1
  3
ACAD_GROUP
350
D
  3
ACAD_LAYOUT
350
1A
  3
ACAD_MLINESTYLE
350
17
  3
ACAD_PLOTSETTINGS
350
19
  3
ACAD_PLOTSTYLENAME
350
E
  3
AcDbVariableDictionary
350
5E
  0
DICTIONARY
  5
1E3
330
2
100
AcDbDictionary
280
     1
281
     1
  3
ACAD_LAYERSTATES
360
1E4
  0
DICTIONARY
  5
19B
330
1F
100
AcDbDictionary
280
     1
281
     1
  3
ACAD_LAYOUTSELFREF
360
1D2
  0
DICTIONARY
  5
19D
330
55
100
AcDbDictionary
280
     1
281
     1
  3
ACAD_LAYOUTSELFREF
360
1D6
  0
DICTIONARY
  5
19F
330
50
100
AcDbDictionary
280
     1
281
     1
  3
ACAD_LAYOUTSELFREF
360
1D5
  0
DICTIONARY
  5
D
102
{ACAD_REACTORS
330
C
102
}
330
C
100
AcDbDictionary
281
     1
  0
DICTIONARY
  5
1A
102
{ACAD_REACTORS
330
C
102
}
330
C
100
AcDbDictionary
281
     1
  3
Model
350
22
  3
ﾚｲｱｳﾄ1
350
51
  3
ﾚｲｱｳﾄ2
350
56
  0
DICTIONARY
  5
17
102
{ACAD_REACTORS
330
C
102
}
330
C
100
AcDbDictionary
281
     1
  3
Standard
350
18
  0
DICTIONARY
  5
19
102
{ACAD_REACTORS
330
C
102
}
330
C
100
AcDbDictionary
281
     1
  0
ACDBDICTIONARYWDFLT
  5
E
102
{ACAD_REACTORS
330
C
102
}
330
C
100
AcDbDictionary
281
     1
  3
Normal
350
F
100
AcDbDictionaryWithDefault
340
F
  0
DICTIONARY
  5
5E
102
{ACAD_REACTORS
330
C
102
}
330
C
100
AcDbDictionary
281
     1
  3
DIMASSOC
350
5F
  3
HIDETEXT
350
63
  0
DICTIONARY
  5
1E4
102
{ACAD_REACTORS
330
1E3
102
}
330
1E3
100
AcDbDictionary
281
     1
  0
XRECORD
  5
1D2
102
{ACAD_REACTORS
330
19B
102
}
330
19B
100
AcDbXrecord
280
     1
340
1F
  0
XRECORD
  5
1D6
102
{ACAD_REACTORS
330
19D
102
}
330
19D
100
AcDbXrecord
280
     1
340
55
  0
XRECORD
  5
1D5
102
{ACAD_REACTORS
330
19F
102
}
330
19F
100
AcDbXrecord
280
     1
340
50
  0
LAYOUT
  5
22
102
{ACAD_REACTORS
330
1A
102
}
330
1A
100
AcDbPlotSettings
  1

  2
none_device
  4
ANSI_A_(8.50_x_11.00_Inches)
  6

 40
6.349999904632568
 41
19.04999923706054
 42
6.350006103515625
 43
19.04998779296875
 44
215.8999938964843
 45
279.3999938964843
 46
0.0
 47
0.0
 48
0.0
 49
0.0
140
0.0
141
0.0
142
1.0
143
78.436453180766
 70
 11952
 72
     0
 73
     1
 74
     0
  7

 75
     0
147
0.0127491741332998
148
0.0
149
0.0
100
AcDbLayout
  1
Model
 70
     1
 71
     0
 10
0.0
 20
0.0
 11
12.0
 21
9.0
 12
0.0
 22
0.0
 32
0.0
 14
0.0
 24
0.0
 34
0.0
 15
0.0
 25
0.0
 35
0.0
146
0.0
 13
0.0
 23
0.0
 33
0.0
 16
1.0
 26
0.0
 36
0.0
 17
0.0
 27
1.0
 37
0.0
 76
     0
330
1F
  0
LAYOUT
  5
51
102
{ACAD_REACTORS
330
1A
102
}
330
1A
100
AcDbPlotSettings
  1

  2
none_device
  4
Letter_(8.50_x_11.00_Inches)
  6

 40
6.349999904632568
 41
6.349999904632568
 42
6.350006103515625
 43
6.350006103515625
 44
215.8999938964843
 45
279.3999938964843
 46
0.0
 47
0.0
 48
0.0
 49
0.0
140
0.0
141
0.0
142
1.0
143
1.0
 70
   688
 72
     1
 73
     1
 74
     5
  7

 75
    16
147
1.0
148
0.0
149
0.0
100
AcDbLayout
  1
ﾚｲｱｳﾄ1
 70
     1
 71
     1
 10
-6.350006103515625
 20
-6.349999904632568
 11
273.0499877929687
 21
209.5499939918517
 12
0.0
 22
0.0
 32
0.0
 14
26.66076962115562
 24
20.31135699206657
 34
-0.0015258207003583
 15
240.039213369355
 25
182.8886381005154
 35
0.0000000349246037
146
0.0
 13
0.0
 23
0.0
 33
0.0
 16
1.0
 26
0.0
 36
0.0
 17
0.0
 27
1.0
 37
0.0
 76
     0
330
50
331
6B
  0
LAYOUT
  5
56
102
{ACAD_REACTORS
330
1A
102
}
330
1A
100
AcDbPlotSettings
  1

  2
none_device
  4
Letter_(8.50_x_11.00_Inches)
  6

 40
6.349999904632568
 41
6.349999904632568
 42
6.350006103515625
 43
6.350006103515625
 44
215.8999938964843
 45
279.3999938964843
 46
0.0
 47
0.0
 48
0.0
 49
0.0
140
0.0
141
0.0
142
1.0
143
1.0
 70
   688
 72
     1
 73
     1
 74
     5
  7

 75
    16
147
1.0
148
0.0
149
0.0
100
AcDbLayout
  1
ﾚｲｱｳﾄ2
 70
     1
 71
     2
 10
-6.350006103515625
 20
-6.349999904632568
 11
273.0499877929687
 21
209.5499939918517
 12
0.0
 22
0.0
 32
0.0
 14
26.66076962115562
 24
20.31135699206657
 34
-0.0015258207003583
 15
240.039213369355
 25
182.8886381005154
 35
0.0000000349246037
146
0.0
 13
0.0
 23
0.0
 33
0.0
 16
1.0
 26
0.0
 36
0.0
 17
0.0
 27
1.0
 37
0.0
 76
     0
330
55
331
71
  0
MLINESTYLE
  5
18
102
{ACAD_REACTORS
330
17
102
}
330
17
100
AcDbMlineStyle
  2
STANDARD
 70
     0
  3

 62
   256
 51
90.0
 52
90.0
 71
     2
 49
0.5
 62
   256
  6
BYLAYER
 49
-0.5
 62
   256
  6
BYLAYER
  0
ACDBPLACEHOLDER
  5
F
102
{ACAD_REACTORS
330
E
102
}
330
E
  0
DICTIONARYVAR
  5
5F
102
{ACAD_REACTORS
330
5E
102
}
330
5E
100
DictionaryVariables
280
     0
  1
2
  0
DICTIONARYVAR
  5
63
102
{ACAD_REACTORS
330
5E
102
}
330
5E
100
DictionaryVariables
280
     0
  1
1
  0
ENDSEC
  0
EOF
