  0
SECTION
  2
HEADER
  9
$ACADVER
  1
AC1015
  9
$ACADMAINTVER
 70
    20
  9
$DWGCODEPAGE
  3
ANSI_932
  9
$INSBASE
 10
0.0
 20
0.0
 30
0.0
  9
$EXTMIN
 10
-184.0509501086885
 20
-51.10130938070563
 30
0.0
  9
$EXTMAX
 10
124.0
 20
474.0636343514901
 30
0.0
  9
$LIMMIN
 10
0.0
 20
0.0
  9
$LIMMAX
 10
420.0
 20
297.0
  9
$ORTHOMODE
 70
     1
  9
$REGENMODE
 70
     1
  9
$FILLMODE
 70
     1
  9
$QTEXTMODE
 70
     0
  9
$MIRRTEXT
 70
     1
  9
$LTSCALE
 40
0.2
  9
$ATTMODE
 70
     1
  9
$TEXTSIZE
 40
2.5
  9
$TRACEWID
 40
1.0
  9
$TEXTSTYLE
  7
Standard
  9
$CLAYER
  8
0
  9
$CELTYPE
  6
ByLayer
  9
$CECOLOR
 62
   256
  9
$CELTSCALE
 40
1.0
  9
$DISPSILH
 70
     0
  9
$DIMSCALE
 40
1.0
  9
$DIMASZ
 40
2.5
  9
$DIMEXO
 40
0.625
  9
$DIMDLI
 40
3.75
  9
$DIMRND
 40
0.0
  9
$DIMDLE
 40
0.0
  9
$DIMEXE
 40
1.25
  9
$DIMTP
 40
0.0
  9
$DIMTM
 40
0.0
  9
$DIMTXT
 40
2.5
  9
$DIMCEN
 40
2.5
  9
$DIMTSZ
 40
0.0
  9
$DIMTOL
 70
     0
  9
$DIMLIM
 70
     0
  9
$DIMTIH
 70
     0
  9
$DIMTOH
 70
     0
  9
$DIMSE1
 70
     0
  9
$DIMSE2
 70
     0
  9
$DIMTAD
 70
     1
  9
$DIMZIN
 70
     8
  9
$DIMBLK
  1

  9
$DIMASO
 70
     1
  9
$DIMSHO
 70
     1
  9
$DIMPOST
  1

  9
$DIMAPOST
  1

  9
$DIMALT
 70
     0
  9
$DIMALTD
 70
     3
  9
$DIMALTF
 40
0.03937007874016
  9
$DIMLFAC
 40
1.0
  9
$DIMTOFL
 70
     1
  9
$DIMTVP
 40
0.0
  9
$DIMTIX
 70
     0
  9
$DIMSOXD
 70
     0
  9
$DIMSAH
 70
     0
  9
$DIMBLK1
  1

  9
$DIMBLK2
  1

  9
$DIMSTYLE
  2
ISO-25
  9
$DIMCLRD
 70
     0
  9
$DIMCLRE
 70
     0
  9
$DIMCLRT
 70
     0
  9
$DIMTFAC
 40
1.0
  9
$DIMGAP
 40
0.625
  9
$DIMJUST
 70
     0
  9
$DIMSD1
 70
     0
  9
$DIMSD2
 70
     0
  9
$DIMTOLJ
 70
     0
  9
$DIMTZIN
 70
     8
  9
$DIMALTZ
 70
     0
  9
$DIMALTTZ
 70
     0
  9
$DIMUPT
 70
     0
  9
$DIMDEC
 70
     2
  9
$DIMTDEC
 70
     2
  9
$DIMALTU
 70
     2
  9
$DIMALTTD
 70
     3
  9
$DIMTXSTY
  7
Standard
  9
$DIMAUNIT
 70
     0
  9
$DIMADEC
 70
     0
  9
$DIMALTRND
 40
0.0
  9
$DIMAZIN
 70
     0
  9
$DIMDSEP
 70
    44
  9
$DIMATFIT
 70
     3
  9
$DIMFRAC
 70
     0
  9
$DIMLDRBLK
  1

  9
$DIMLUNIT
 70
     2
  9
$DIMLWD
 70
    -2
  9
$DIMLWE
 70
    -2
  9
$DIMTMOVE
 70
     0
  9
$LUNITS
 70
     2
  9
$LUPREC
 70
     4
  9
$SKETCHINC
 40
1.0
  9
$FILLETRAD
 40
10.0
  9
$AUNITS
 70
     0
  9
$AUPREC
 70
     0
  9
$MENU
  1
.
  9
$ELEVATION
 40
0.0
  9
$PELEVATION
 40
0.0
  9
$THICKNESS
 40
0.0
  9
$LIMCHECK
 70
     0
  9
$CHAMFERA
 40
10.0
  9
$CHAMFERB
 40
10.0
  9
$CHAMFERC
 40
20.0
  9
$CHAMFERD
 40
0.0
  9
$SKPOLY
 70
     0
  9
$TDCREATE
 40
2456874.593206019
  9
$TDUCREATE
 40
2456874.218217083
  9
$TDUPDATE
 40
2460175.596064815
  9
$TDUUPDATE
 40
2460175.221064815
  9
$TDINDWG
 40
0.0596822685
  9
$TDUSRTIMER
 40
0.0596822569
  9
$USRTIMER
 70
     1
  9
$ANGBASE
 50
0.0
  9
$ANGDIR
 70
     0
  9
$PDMODE
 70
     0
  9
$PDSIZE
 40
0.0
  9
$PLINEWID
 40
0.0
  9
$SPLFRAME
 70
     0
  9
$SPLINETYPE
 70
     6
  9
$SPLINESEGS
 70
     8
  9
$HANDSEED
  5
1341
  9
$SURFTAB1
 70
     6
  9
$SURFTAB2
 70
     6
  9
$SURFTYPE
 70
     6
  9
$SURFU
 70
     6
  9
$SURFV
 70
     6
  9
$UCSBASE
  2

  9
$UCSNAME
  2

  9
$UCSORG
 10
0.0
 20
0.0
 30
0.0
  9
$UCSXDIR
 10
1.0
 20
0.0
 30
0.0
  9
$UCSYDIR
 10
0.0
 20
1.0
 30
0.0
  9
$UCSORTHOREF
  2

  9
$UCSORTHOVIEW
 70
     0
  9
$UCSORGTOP
 10
0.0
 20
0.0
 30
0.0
  9
$UCSORGBOTTOM
 10
0.0
 20
0.0
 30
0.0
  9
$UCSORGLEFT
 10
0.0
 20
0.0
 30
0.0
  9
$UCSORGRIGHT
 10
0.0
 20
0.0
 30
0.0
  9
$UCSORGFRONT
 10
0.0
 20
0.0
 30
0.0
  9
$UCSORGBACK
 10
0.0
 20
0.0
 30
0.0
  9
$PUCSBASE
  2

  9
$PUCSNAME
  2

  9
$PUCSORG
 10
0.0
 20
0.0
 30
0.0
  9
$PUCSXDIR
 10
1.0
 20
0.0
 30
0.0
  9
$PUCSYDIR
 10
0.0
 20
1.0
 30
0.0
  9
$PUCSORTHOREF
  2

  9
$PUCSORTHOVIEW
 70
     0
  9
$PUCSORGTOP
 10
0.0
 20
0.0
 30
0.0
  9
$PUCSORGBOTTOM
 10
0.0
 20
0.0
 30
0.0
  9
$PUCSORGLEFT
 10
0.0
 20
0.0
 30
0.0
  9
$PUCSORGRIGHT
 10
0.0
 20
0.0
 30
0.0
  9
$PUCSORGFRONT
 10
0.0
 20
0.0
 30
0.0
  9
$PUCSORGBACK
 10
0.0
 20
0.0
 30
0.0
  9
$USERI1
 70
     0
  9
$USERI2
 70
     0
  9
$USERI3
 70
     0
  9
$USERI4
 70
     0
  9
$USERI5
 70
     0
  9
$USERR1
 40
0.0
  9
$USERR2
 40
0.0
  9
$USERR3
 40
0.0
  9
$USERR4
 40
0.0
  9
$USERR5
 40
0.0
  9
$WORLDVIEW
 70
     1
  9
$SHADEDGE
 70
     3
  9
$SHADEDIF
 70
    70
  9
$TILEMODE
 70
     1
  9
$MAXACTVP
 70
    64
  9
$PINSBASE
 10
0.0
 20
0.0
 30
0.0
  9
$PLIMCHECK
 70
     0
  9
$PEXTMIN
 10
26.66076962115563
 20
20.31135699206658
 30
-0.0015258207003583
  9
$PEXTMAX
 10
240.039213369355
 20
182.8886381005154
 30
0.0000000349246037
  9
$PLIMMIN
 10
-6.350006103515625
 20
-6.349999904632568
  9
$PLIMMAX
 10
273.0499877929688
 20
209.5499939918518
  9
$UNITMODE
 70
     0
  9
$VISRETAIN
 70
     1
  9
$PLINEGEN
 70
     0
  9
$PSLTSCALE
 70
     1
  9
$TREEDEPTH
 70
  3020
  9
$CMLSTYLE
  2
Standard
  9
$CMLJUST
 70
     0
  9
$CMLSCALE
 40
20.0
  9
$PROXYGRAPHICS
 70
     1
  9
$MEASUREMENT
 70
     1
  9
$CELWEIGHT
370
    -1
  9
$ENDCAPS
280
     0
  9
$JOINSTYLE
280
     0
  9
$LWDISPLAY
290
     0
  9
$INSUNITS
 70
     4
  9
$HYPERLINKBASE
  1

  9
$STYLESHEET
  1

  9
$XEDIT
290
     1
  9
$CEPSNTYPE
380
     0
  9
$PSTYLEMODE
290
     1
  9
$FINGERPRINTGUID
  2
{FDEAD578-A652-11D2-9A35-0060089B3A3F}
  9
$VERSIONGUID
  2
{02CFD7CD-01C4-EB40-9ED2-56DE42BB6B3B}
  9
$EXTNAMES
290
     1
  9
$PSVPSCALE
 40
0.0
  9
$OLESTARTUP
290
     0
  0
ENDSEC
  0
SECTION
  2
CLASSES
  0
CLASS
  1
ACDBDICTIONARYWDFLT
  2
AcDbDictionaryWithDefault
  3
ObjectDBX Classes
 90
        0
280
     0
281
     0
  0
CLASS
  1
ACDBPLACEHOLDER
  2
AcDbPlaceHolder
  3
ObjectDBX Classes
 90
        0
280
     0
281
     0
  0
CLASS
  1
LAYOUT
  2
AcDbLayout
  3
ObjectDBX Classes
 90
        0
280
     0
281
     0
  0
CLASS
  1
DICTIONARYVAR
  2
AcDbDictionaryVar
  3
ObjectDBX Classes
 90
        0
280
     0
281
     0
  0
CLASS
  1
MATERIAL
  2
AcDbMaterial
  3
ObjectDBX Classes
 90
     1153
280
     0
281
     0
  0
CLASS
  1
VISUALSTYLE
  2
AcDbVisualStyle
  3
ObjectDBX Classes
 90
     4095
280
     0
281
     0
  0
CLASS
  1
TABLESTYLE
  2
AcDbTableStyle
  3
ObjectDBX Classes
 90
     4095
280
     0
281
     0
  0
CLASS
  1
SCALE
  2
AcDbScale
  3
ObjectDBX Classes
 90
     1153
280
     0
281
     0
  0
CLASS
  1
MLEADERSTYLE
  2
AcDbMLeaderStyle
  3
ACDB_MLEADERSTYLE_CLASS
 90
     4095
280
     0
281
     0
  0
CLASS
  1
ACDBSECTIONVIEWSTYLE
  2
AcDbSectionViewStyle
  3
ObjectDBX Classes
 90
     1025
280
     0
281
     0
  0
CLASS
  1
ACDBDETAILVIEWSTYLE
  2
AcDbDetailViewStyle
  3
ObjectDBX Classes
 90
     1025
280
     0
281
     0
  0
CLASS
  1
SORTENTSTABLE
  2
AcDbSortentsTable
  3
ObjectDBX Classes
 90
        0
280
     0
281
     0
  0
CLASS
  1
CELLSTYLEMAP
  2
AcDbCellStyleMap
  3
ObjectDBX Classes
 90
     1152
280
     0
281
     0
  0
ENDSEC
  0
SECTION
  2
TABLES
  0
TABLE
  2
VPORT
  5
8
330
0
100
AcDbSymbolTable
 70
     1
  0
VPORT
  5
3A6
330
8
100
AcDbSymbolTableRecord
100
AcDbViewportTableRecord
  2
*Active
 70
     0
 10
0.0
 20
0.0
 11
1.0
 21
1.0
 12
-9.051618760723613
 22
336.2072946089881
 13
0.0
 23
0.0
 14
10.0
 24
10.0
 15
10.0
 25
10.0
 16
0.0
 26
0.0
 36
1.0
 17
0.0
 27
0.0
 37
0.0
 40
1155.717667861153
 41
1.949720670391061
 42
50.0
 43
0.0
 44
0.0
 50
0.0
 51
0.0
 71
     0
 72
   100
 73
     1
 74
     3
 75
     0
 76
     0
 77
     0
 78
     0
281
     0
 65
     1
110
0.0
120
0.0
130
0.0
111
1.0
121
0.0
131
0.0
112
0.0
122
1.0
132
0.0
 79
     0
146
0.0
1001
ACAD_NAV_VCDISPLAY
1070
     3
  0
ENDTAB
  0
TABLE
  2
LTYPE
  5
5
330
0
100
AcDbSymbolTable
 70
     4
  0
LTYPE
  5
14
330
5
100
AcDbSymbolTableRecord
100
AcDbLinetypeTableRecord
  2
ByBlock
 70
     0
  3

 72
    65
 73
     0
 40
0.0
  0
LTYPE
  5
15
330
5
100
AcDbSymbolTableRecord
100
AcDbLinetypeTableRecord
  2
ByLayer
 70
     0
  3

 72
    65
 73
     0
 40
0.0
  0
LTYPE
  5
16
330
5
100
AcDbSymbolTableRecord
100
AcDbLinetypeTableRecord
  2
Continuous
 70
     0
  3
Solid line
 72
    65
 73
     0
 40
0.0
  0
LTYPE
  5
8D
330
5
100
AcDbSymbolTableRecord
100
AcDbLinetypeTableRecord
  2
CENTER
 70
     0
  3
Center ____ _ ____ _ ____ _ ____ _ ____ _ ____
 72
    65
 73
     4
 40
50.8
 49
31.75
 74
     0
 49
-6.349999999999999
 74
     0
 49
6.349999999999999
 74
     0
 49
-6.349999999999999
 74
     0
  0
LTYPE
  5
8E
330
5
100
AcDbSymbolTableRecord
100
AcDbLinetypeTableRecord
  2
PHANTOM
 70
     0
  3
Phantom ______  __  __  ______  __  __  ______
 72
    65
 73
     6
 40
63.5
 49
31.75
 74
     0
 49
-6.349999999999999
 74
     0
 49
6.349999999999999
 74
     0
 49
-6.349999999999999
 74
     0
 49
6.349999999999999
 74
     0
 49
-6.349999999999999
 74
     0
  0
LTYPE
  5
4CA
330
5
100
AcDbSymbolTableRecord
100
AcDbLinetypeTableRecord
  2
DASHED
 70
     0
  3
__ __ __ __ __ __ __ __ __ __ __ __ __ __ __ __
 72
    65
 73
     2
 40
4.5
 49
3.0
 74
     0
 49
-1.5
 74
     0
  0
ENDTAB
  0
TABLE
  2
LAYER
  5
2
102
{ACAD_XDICTIONARY
360
97
102
}
330
0
100
AcDbSymbolTable
 70
     4
  0
LAYER
  5
10
102
{ACAD_XDICTIONARY
360
1255
102
}
330
2
100
AcDbSymbolTableRecord
100
AcDbLayerTableRecord
  2
0
 70
     0
 62
     7
  6
Continuous
370
    -3
390
F
  0
LAYER
  5
8F
102
{ACAD_XDICTIONARY
360
90
102
}
330
2
100
AcDbSymbolTableRecord
100
AcDbLayerTableRecord
  2
2
 70
     0
 62
     2
  6
PHANTOM
370
    -3
390
F
1001
AcAecLayerStandard
1000

1000

1001
ACCMTRANSPARENCY
1071
        0
  0
LAYER
  5
92
102
{ACAD_XDICTIONARY
360
93
102
}
330
2
100
AcDbSymbolTableRecord
100
AcDbLayerTableRecord
  2
1
 70
     0
 62
     5
  6
CENTER
370
    -3
390
F
1001
AcAecLayerStandard
1000

1000

1001
ACCMTRANSPARENCY
1071
        0
  0
LAYER
  5
4CB
330
2
100
AcDbSymbolTableRecord
100
AcDbLayerTableRecord
  2
Defpoints
 70
     0
 62
     7
  6
Continuous
290
     0
370
    -3
390
F
  0
ENDTAB
  0
TABLE
  2
STYLE
  5
3
330
0
100
AcDbSymbolTable
 70
     1
  0
STYLE
  5
11
330
3
100
AcDbSymbolTableRecord
100
AcDbTextStyleTableRecord
  2
Standard
 70
     0
 40
0.0
 41
1.0
 50
0.0
 71
     0
 42
2.5
  3
txt
  4

  0
ENDTAB
  0
TABLE
  2
VIEW
  5
6
330
0
100
AcDbSymbolTable
 70
     0
  0
ENDTAB
  0
TABLE
  2
UCS
  5
7
330
0
100
AcDbSymbolTable
 70
     0
  0
ENDTAB
  0
TABLE
  2
APPID
  5
9
330
0
100
AcDbSymbolTable
 70
     6
  0
APPID
  5
12
330
9
100
AcDbSymbolTableRecord
100
AcDbRegAppTableRecord
  2
ACAD
 70
     0
  0
APPID
  5
95
330
9
100
AcDbSymbolTableRecord
100
AcDbRegAppTableRecord
  2
AcAecLayerStandard
 70
     0
  0
APPID
  5
96
330
9
100
AcDbSymbolTableRecord
100
AcDbRegAppTableRecord
  2
ACCMTRANSPARENCY
 70
     0
  0
APPID
  5
4CC
330
9
100
AcDbSymbolTableRecord
100
AcDbRegAppTableRecord
  2
ACAD_NAV_VCDISPLAY
 70
     0
  0
APPID
  5
114B
330
9
100
AcDbSymbolTableRecord
100
AcDbRegAppTableRecord
  2
ACAD_EXEMPT_FROM_CAD_STANDARDS
 70
     0
  0
APPID
  5
1329
330
9
100
AcDbSymbolTableRecord
100
AcDbRegAppTableRecord
  2
ACAD_MLEADERVER
 70
     0
  0
ENDTAB
  0
TABLE
  2
DIMSTYLE
  5
A
330
0
100
AcDbSymbolTable
 70
     2
100
AcDbDimStyleTable
 71
     1
340
27
  0
DIMSTYLE
105
27
330
A
100
AcDbSymbolTableRecord
100
AcDbDimStyleTableRecord
  2
ISO-25
 70
     0
 41
2.5
 42
0.625
 43
3.75
 44
1.25
 73
     0
 74
     0
 77
     1
 78
     8
140
2.5
141
2.5
143
0.03937007874016
147
0.625
171
     3
172
     1
271
     2
272
     2
274
     3
278
    44
283
     0
284
     8
340
11
  0
DIMSTYLE
105
12BD
330
A
100
AcDbSymbolTableRecord
100
AcDbDimStyleTableRecord
  2
STANDARD
 70
     0
279
     2
340
11
  0
ENDTAB
  0
TABLE
  2
BLOCK_RECORD
  5
1
330
0
100
AcDbSymbolTable
 70
    11
  0
BLOCK_RECORD
  5
1F
102
{ACAD_XDICTIONARY
360
117B
102
}
330
1
100
AcDbSymbolTableRecord
100
AcDbBlockTableRecord
  2
*Model_Space
340
22
  0
BLOCK_RECORD
  5
55
330
1
100
AcDbSymbolTableRecord
100
AcDbBlockTableRecord
  2
*Paper_Space
340
56
  0
BLOCK_RECORD
  5
50
330
1
100
AcDbSymbolTableRecord
100
AcDbBlockTableRecord
  2
*Paper_Space0
340
51
  0
BLOCK_RECORD
  5
3F9
330
1
100
AcDbSymbolTableRecord
100
AcDbBlockTableRecord
  2
USER0003
340
0
  0
BLOCK_RECORD
  5
43C
330
1
100
AcDbSymbolTableRecord
100
AcDbBlockTableRecord
  2
DTL0003
340
0
  0
BLOCK_RECORD
  5
465
330
1
100
AcDbSymbolTableRecord
100
AcDbBlockTableRecord
  2
_Open
340
0
102
{BLKREFS
102
}
  0
BLOCK_RECORD
  5
48E
330
1
100
AcDbSymbolTableRecord
100
AcDbBlockTableRecord
  2
SYM0013
340
0
  0
BLOCK_RECORD
  5
495
330
1
100
AcDbSymbolTableRecord
100
AcDbBlockTableRecord
  2
SYM0014
340
0
  0
BLOCK_RECORD
  5
49C
330
1
100
AcDbSymbolTableRecord
100
AcDbBlockTableRecord
  2
SYM0019
340
0
  0
BLOCK_RECORD
  5
4A3
330
1
100
AcDbSymbolTableRecord
100
AcDbBlockTableRecord
  2
SYM0020
340
0
  0
BLOCK_RECORD
  5
4B9
330
1
100
AcDbSymbolTableRecord
100
AcDbBlockTableRecord
  2
SYM0023
340
0
  0
BLOCK_RECORD
  5
4C2
330
1
100
AcDbSymbolTableRecord
100
AcDbBlockTableRecord
  2
SYM0024
340
0
  0
ENDTAB
  0
ENDSEC
  0
SECTION
  2
BLOCKS
  0
BLOCK
  5
20
330
1F
100
AcDbEntity
  8
0
100
AcDbBlockBegin
  2
*Model_Space
 70
     0
 10
0.0
 20
0.0
 30
0.0
  3
*Model_Space
  1

  0
ENDBLK
  5
21
330
1F
100
AcDbEntity
  8
0
100
AcDbBlockEnd
  0
BLOCK
  5
57
330
55
100
AcDbEntity
 67
     1
  8
0
100
AcDbBlockBegin
  2
*Paper_Space
 70
     0
 10
0.0
 20
0.0
 30
0.0
  3
*Paper_Space
  1

  0
ENDBLK
  5
58
330
55
100
AcDbEntity
 67
     1
  8
0
100
AcDbBlockEnd
  0
BLOCK
  5
52
330
50
100
AcDbEntity
 67
     1
  8
0
100
AcDbBlockBegin
  2
*Paper_Space0
 70
     0
 10
0.0
 20
0.0
 30
0.0
  3
*Paper_Space0
  1

  0
VIEWPORT
  5
6B
102
{ACAD_XDICTIONARY
360
12ED
102
}
330
50
100
AcDbEntity
 67
     1
  8
0
100
AcDbViewport
 10
133.3499908447266
 20
101.5999970436096
 30
0.0
 40
381.3957395593835
 41
218.2856291881582
 68
     0
 69
     0
 12
133.3499908447266
 22
101.5999970436096
 13
0.0
 23
0.0
 14
10.0
 24
10.0
 15
10.0
 25
10.0
 16
0.0
 26
0.0
 36
1.0
 17
0.0
 27
0.0
 37
0.0
 42
50.0
 43
0.0
 44
0.0
 45
218.2856291881582
 50
0.0
 51
0.0
 72
   100
 90
    32800
  1

281
     0
 71
     1
 74
     0
110
0.0
120
0.0
130
0.0
111
1.0
121
0.0
131
0.0
112
0.0
122
1.0
132
0.0
 79
     0
146
0.0
  0
VIEWPORT
  5
6D
102
{ACAD_XDICTIONARY
360
12EF
102
}
330
50
100
AcDbEntity
 67
     1
  8
0
100
AcDbViewport
 10
133.3499939441681
 20
101.5999939441681
 30
0.0
 40
213.3599903106689
 41
162.5599903106689
 68
     0
 69
     0
 12
210.0
 22
148.5
 13
0.0
 23
0.0
 14
10.0
 24
10.0
 15
10.0
 25
10.0
 16
0.0
 26
0.0
 36
1.0
 17
0.0
 27
0.0
 37
0.0
 42
50.0
 43
0.0
 44
0.0
 45
324.0677920111345
 50
0.0
 51
0.0
 72
   100
 90
    32864
  1

281
     0
 71
     1
 74
     0
110
0.0
120
0.0
130
0.0
111
1.0
121
0.0
131
0.0
112
0.0
122
1.0
132
0.0
 79
     0
146
0.0
  0
ENDBLK
  5
53
330
50
100
AcDbEntity
 67
     1
  8
0
100
AcDbBlockEnd
  0
BLOCK
  5
3FA
330
3F9
100
AcDbEntity
  8
0
100
AcDbBlockBegin
  2
USER0003
 70
     0
 10
0.0
 20
0.0
 30
0.0
  3
USER0003
  1

  0
LINE
  5
3FB
330
3F9
100
AcDbEntity
  8
0
  6
Continuous
 62
     4
370
    20
100
AcDbLine
 10
-104.0
 20
8.0
 30
0.0
 11
15.0
 21
8.0
 31
0.0
  0
LINE
  5
3FC
330
3F9
100
AcDbEntity
  8
0
  6
Continuous
 62
     4
370
    20
100
AcDbLine
 10
-104.0
 20
10.5
 30
0.0
 11
15.0
 21
10.5
 31
0.0
  0
LINE
  5
3FD
330
3F9
100
AcDbEntity
  8
0
  6
Continuous
 62
     4
370
    20
100
AcDbLine
 10
-104.0
 20
10.5
 30
0.0
 11
-104.0
 21
8.0
 31
0.0
  0
LINE
  5
3FE
330
3F9
100
AcDbEntity
  8
0
  6
Continuous
 62
     4
370
    20
100
AcDbLine
 10
15.0
 20
10.5
 30
0.0
 11
15.0
 21
8.0
 31
0.0
  0
LINE
  5
3FF
330
3F9
100
AcDbEntity
  8
0
  6
CENTER
 62
     1
370
     9
100
AcDbLine
 10
10.06300232197264
 20
7.5
 30
0.0
 11
11.91260615041248
 21
7.5
 31
0.0
  0
LINE
  5
400
330
3F9
100
AcDbEntity
  8
0
  6
CENTER
 62
     1
370
     9
100
AcDbLine
 10
-14.2369384765625
 20
13.00010633804255
 30
0.0
 11
-14.2369384765625
 21
11.5
 31
0.0
  0
LINE
  5
401
330
3F9
100
AcDbEntity
  8
0
  6
CENTER
 62
     1
370
     9
100
AcDbLine
 10
-14.23711428403919
 20
12.99999698429864
 30
0.0
 11
-17.45247814607414
 21
11.00001334877756
 31
0.0
  0
LINE
  5
402
330
3F9
100
AcDbEntity
  8
0
  6
Continuous
 62
     4
370
    20
100
AcDbLine
 10
4.6187744140625
 20
-3.6356201171875
 30
0.0
 11
4.6187744140625
 21
0.0
 31
0.0
  0
LINE
  5
403
330
3F9
100
AcDbEntity
  8
0
  6
Continuous
 62
     4
370
    20
100
AcDbLine
 10
2.30938720703125
 20
-3.6356201171875
 30
0.0
 11
2.30938720703125
 21
0.0
 31
0.0
  0
LINE
  5
404
330
3F9
100
AcDbEntity
  8
0
  6
Continuous
 62
     4
370
    20
100
AcDbLine
 10
3.0
 20
-4.0
 30
0.0
 11
3.0
 21
-7.0
 31
0.0
  0
LINE
  5
405
330
3F9
100
AcDbEntity
  8
0
  6
Continuous
 62
     4
370
    20
100
AcDbLine
 10
-3.0
 20
-7.0
 30
0.0
 11
3.0
 21
-7.0
 31
0.0
  0
LINE
  5
406
330
3F9
100
AcDbEntity
  8
0
  6
Continuous
 62
     4
370
    20
100
AcDbLine
 10
-3.464111328125
 20
-4.0
 30
0.0
 11
3.464111328125
 21
-4.0
 31
0.0
  0
LINE
  5
407
330
3F9
100
AcDbEntity
  8
0
  6
Continuous
 62
     4
370
    20
100
AcDbLine
 10
-3.0
 20
-4.0
 30
0.0
 11
-3.0
 21
-7.0
 31
0.0
  0
LINE
  5
408
330
3F9
100
AcDbEntity
  8
0
  6
Continuous
 62
     4
370
    20
100
AcDbLine
 10
-2.30938720703125
 20
-3.6356201171875
 30
0.0
 11
-2.30938720703125
 21
0.0
 31
0.0
  0
LINE
  5
409
330
3F9
100
AcDbEntity
  8
0
  6
Continuous
 62
     4
370
    20
100
AcDbLine
 10
-4.6187744140625
 20
-3.6356201171875
 30
0.0
 11
-4.6187744140625
 21
0.0
 31
0.0
  0
LINE
  5
40A
330
3F9
100
AcDbEntity
  8
0
  6
Continuous
 62
     4
370
    20
100
AcDbLine
 10
-3.0
 20
11.64306640625
 30
0.0
 11
-3.0
 21
14.5
 31
0.0
  0
LINE
  5
40B
330
3F9
100
AcDbEntity
  8
0
  6
Continuous
 62
     4
370
    20
100
AcDbLine
 10
-3.0
 20
6.5
 30
0.0
 11
-3.0
 21
8.0
 31
0.0
  0
LINE
  5
40C
330
3F9
100
AcDbEntity
  8
0
  6
Continuous
 62
     4
370
    20
100
AcDbLine
 10
3.0
 20
6.5
 30
0.0
 11
3.0
 21
8.0
 31
0.0
  0
LINE
  5
40D
330
3F9
100
AcDbEntity
  8
0
  6
Continuous
 62
     4
370
    20
100
AcDbLine
 10
3.0
 20
10.5
 30
0.0
 11
3.0
 21
10.994140625
 31
0.0
  0
LINE
  5
40E
330
3F9
100
AcDbEntity
  8
0
  6
Continuous
 62
     4
370
    20
100
AcDbLine
 10
-4.6187744140625
 20
6.1356201171875
 30
0.0
 11
-4.6187744140625
 21
2.5
 31
0.0
  0
LINE
  5
40F
330
3F9
100
AcDbEntity
  8
0
  6
CENTER
 62
     1
370
     9
100
AcDbLine
 10
0.0
 20
-8.991756571138541
 30
0.0
 11
0.0
 21
10.79157034236976
 31
0.0
  0
LINE
  5
410
330
3F9
100
AcDbEntity
  8
0
  6
Continuous
 62
     4
370
    20
100
AcDbLine
 10
-14.50119980857479
 20
13.42456598426302
 30
0.0
 11
-17.71656367060975
 21
11.42458234874194
 31
0.0
  0
LINE
  5
411
330
3F9
100
AcDbEntity
  8
0
  6
Continuous
 62
     4
370
    20
100
AcDbLine
 10
-14.7369384765625
 20
12.1002197265625
 30
0.0
 11
-14.7369384765625
 21
11.5
 31
0.0
  0
LINE
  5
412
330
3F9
100
AcDbEntity
  8
0
  6
Continuous
 62
     4
370
    20
100
AcDbLine
 10
-9.95233154296875
 20
11.5
 30
0.0
 11
-17.45233154296875
 21
11.5
 31
0.0
  0
LINE
  5
413
330
3F9
100
AcDbEntity
  8
0
  6
Continuous
 62
     4
370
    20
100
AcDbLine
 10
-13.7369384765625
 20
8.0
 30
0.0
 11
-13.7369384765625
 21
7.5
 31
0.0
  0
LINE
  5
414
330
3F9
100
AcDbEntity
  8
0
  6
Continuous
 62
     4
370
    20
100
AcDbLine
 10
11.5
 20
10.5
 30
0.0
 11
11.5
 21
12.29997085935591
 31
0.0
  0
LINE
  5
415
330
3F9
100
AcDbEntity
  8
0
  6
Continuous
 62
     4
370
    20
100
AcDbLine
 10
11.5
 20
7.5
 30
0.0
 11
11.5
 21
8.0
 31
0.0
  0
LINE
  5
416
330
3F9
100
AcDbEntity
  8
0
  6
Continuous
 62
     4
370
    20
100
AcDbLine
 10
3.0
 20
11.9970703125
 30
0.0
 11
3.0
 21
14.5
 31
0.0
  0
LINE
  5
417
330
3F9
100
AcDbEntity
  8
0
  6
Continuous
 62
     4
370
    20
100
AcDbLine
 10
4.6187744140625
 20
6.1356201171875
 30
0.0
 11
4.6187744140625
 21
2.5
 31
0.0
  0
LINE
  5
418
330
3F9
100
AcDbEntity
  8
0
  6
Continuous
 62
     4
370
    20
100
AcDbLine
 10
2.30938720703125
 20
6.1356201171875
 30
0.0
 11
2.30938720703125
 21
2.5
 31
0.0
  0
LINE
  5
419
330
3F9
100
AcDbEntity
  8
0
  6
Continuous
 62
     4
370
    20
100
AcDbLine
 10
-14.7369384765625
 20
8.0
 30
0.0
 11
-14.7369384765625
 21
7.5
 31
0.0
  0
LINE
  5
41A
330
3F9
100
AcDbEntity
  8
0
  6
Continuous
 62
     4
370
    20
100
AcDbLine
 10
-2.30938720703125
 20
6.1356201171875
 30
0.0
 11
-2.30938720703125
 21
2.5
 31
0.0
  0
LINE
  5
41B
330
3F9
100
AcDbEntity
  8
0
  6
Continuous
 62
     4
370
    20
100
AcDbLine
 10
-13.7369384765625
 20
13.0
 30
0.0
 11
-13.7369384765625
 21
11.5
 31
0.0
  0
LINE
  5
41C
330
3F9
100
AcDbEntity
  8
0
  6
Continuous
 62
     4
370
    20
100
AcDbLine
 10
10.5
 20
10.5
 30
0.0
 11
10.5
 21
11.73477214053693
 31
0.0
  0
LINE
  5
41D
330
3F9
100
AcDbEntity
  8
0
  6
Continuous
 62
     4
370
    20
100
AcDbLine
 10
10.5
 20
7.5
 30
0.0
 11
10.5
 21
8.0
 31
0.0
  0
LINE
  5
41E
330
3F9
100
AcDbEntity
  8
0
  6
Continuous
 62
     4
370
    20
100
AcDbLine
 10
-13.97302875950363
 20
12.57542798433427
 30
0.0
 11
-15.70198650349922
 21
11.50000158070785
 31
0.0
  0
LINE
  5
41F
330
3F9
100
AcDbEntity
  8
0
  6
Continuous
 62
     6
370
     9
100
AcDbLine
 10
3.31660640663388
 20
17.4999357461308
 30
0.0
 11
-3.31668094560214
 21
14.49991860754181
 31
0.0
  0
LINE
  5
420
330
3F9
100
AcDbEntity
  8
0
  6
Continuous
 62
     4
370
    20
100
AcDbLine
 10
-6.0
 20
17.5
 30
0.0
 11
6.0
 21
17.5
 31
0.0
  0
LINE
  5
421
330
3F9
100
AcDbEntity
  8
0
  6
Continuous
 62
     6
370
     9
100
AcDbLine
 10
-3.316541286441749
 20
17.50018830747295
 30
0.0
 11
3.3167043567992
 21
14.50019003248709
 31
0.0
  0
LINE
  5
422
330
3F9
100
AcDbEntity
  8
0
  6
Continuous
 62
     4
370
    20
100
AcDbLine
 10
-3.464111328125
 20
6.5
 30
0.0
 11
3.464111328125
 21
6.5
 31
0.0
  0
LINE
  5
423
330
3F9
100
AcDbEntity
  8
0
  6
Continuous
 62
     4
370
    20
100
AcDbLine
 10
-6.0
 20
14.5
 30
0.0
 11
6.0
 21
14.5
 31
0.0
  0
LINE
  5
424
330
3F9
100
AcDbEntity
  8
0
  6
Continuous
 62
     4
370
    20
100
AcDbLine
 10
6.0
 20
14.5
 30
0.0
 11
6.0
 21
17.5
 31
0.0
  0
LINE
  5
425
330
3F9
100
AcDbEntity
  8
0
  6
Continuous
 62
     4
370
    20
100
AcDbLine
 10
-6.0
 20
14.5
 30
0.0
 11
-6.0
 21
17.5
 31
0.0
  0
LINE
  5
426
330
3F9
100
AcDbEntity
  8
0
  6
Continuous
 62
     4
370
    20
100
AcDbLine
 10
-3.316650390625
 20
14.5
 30
0.0
 11
-3.316650390625
 21
17.5
 31
0.0
  0
LINE
  5
427
330
3F9
100
AcDbEntity
  8
0
  6
Continuous
 62
     4
370
    20
100
AcDbLine
 10
3.316650390625
 20
14.5
 30
0.0
 11
3.316650390625
 21
17.5
 31
0.0
  0
LINE
  5
428
330
3F9
100
AcDbEntity
  8
0
  6
CENTER
 62
     1
370
     9
100
AcDbLine
 10
0.0
 20
11.79329860121493
 30
0.0
 11
0.0
 21
19.9058945254498
 31
0.0
  0
LINE
  5
429
330
3F9
100
AcDbEntity
  8
0
  6
CENTER
 62
     1
370
     9
100
AcDbLine
 10
-9.95233154296875
 20
11.0
 30
0.0
 11
-17.45233154296875
 21
11.0
 31
0.0
  0
LINE
  5
42A
330
3F9
100
AcDbEntity
  8
0
  6
CENTER
 62
     1
370
     9
100
AcDbLine
 10
-15.09539871672328
 20
7.5
 30
0.0
 11
-13.38493219048323
 21
7.5
 31
0.0
  0
LINE
  5
42B
330
3F9
100
AcDbEntity
  8
0
  6
CENTER
 62
     1
370
     9
100
AcDbLine
 10
11.0
 20
6.429075332998451
 30
0.0
 11
11.0
 21
12.29997085935591
 31
0.0
  0
LINE
  5
42C
330
3F9
100
AcDbEntity
  8
0
  6
CENTER
 62
     1
370
     9
100
AcDbLine
 10
-14.2369384765625
 20
8.0
 30
0.0
 11
-14.2369384765625
 21
6.694429949600142
 31
0.0
  0
ARC
  5
42D
330
3F9
100
AcDbEntity
  8
0
  6
Continuous
 62
     4
370
    20
100
AcDbCircle
 10
3.464111328125
 20
-1.9884033203125
 30
0.0
 40
2.011653184890747
100
AcDbArc
 50
234.9699584879533
 51
305.0300433332796
  0
ARC
  5
42E
330
3F9
100
AcDbEntity
  8
0
  6
Continuous
 62
     4
370
    20
100
AcDbCircle
 10
0.0
 20
3.5
 30
0.0
 40
7.5
100
AcDbArc
 50
252.0660654144677
 51
287.9339432369543
  0
ARC
  5
42F
330
3F9
100
AcDbEntity
  8
0
  6
Continuous
 62
     4
370
    20
100
AcDbCircle
 10
-3.464111328125
 20
-1.9884033203125
 30
0.0
 40
2.011653184890747
100
AcDbArc
 50
234.9699584879533
 51
305.0300433332796
  0
CIRCLE
  5
430
330
3F9
100
AcDbEntity
  8
0
  6
Continuous
 62
     4
370
    20
100
AcDbCircle
 10
-14.2369384765625
 20
7.5
 30
0.0
 40
0.5
  0
CIRCLE
  5
431
330
3F9
100
AcDbEntity
  8
0
  6
Continuous
 62
     4
370
    20
100
AcDbCircle
 10
11.0
 20
7.5
 30
0.0
 40
0.5
  0
ARC
  5
432
330
3F9
100
AcDbEntity
  8
0
  6
Continuous
 62
     4
370
    20
100
AcDbCircle
 10
-17.45233154296875
 20
11.0
 30
0.0
 40
0.5
100
AcDbArc
 50
89.99998884409983
 51
270.0000006832453
  0
ARC
  5
433
330
3F9
100
AcDbEntity
  8
0
  6
Continuous
 62
     4
370
    20
100
AcDbCircle
 10
-9.95233154296875
 20
180.5
 30
0.0
 40
169.0
100
AcDbArc
 50
269.9999974955218
 51
277.1006408249589
  0
ARC
  5
434
330
3F9
100
AcDbEntity
  8
0
  6
Continuous
 62
     4
370
    20
100
AcDbCircle
 10
-9.95233154296875
 20
180.5
 30
0.0
 40
170.0
100
AcDbArc
 50
269.9999974955218
 51
277.0796494877152
  0
ARC
  5
435
330
3F9
100
AcDbEntity
  8
0
  6
CENTER
 62
     1
370
     9
100
AcDbCircle
 10
-9.95233154296875
 20
180.5
 30
0.0
 40
169.5
100
AcDbArc
 50
269.9999974955218
 51
277.1006408249589
  0
ARC
  5
436
330
3F9
100
AcDbEntity
  8
0
  6
Continuous
 62
     4
370
    20
100
AcDbCircle
 10
3.464111328125
 20
4.4884033203125
 30
0.0
 40
2.011653184890747
100
AcDbArc
 50
54.969960081815
 51
125.0300415120467
  0
ARC
  5
437
330
3F9
100
AcDbEntity
  8
0
  6
Continuous
 62
     4
370
    20
100
AcDbCircle
 10
-14.2369384765625
 20
13.0
 30
0.0
 40
0.5
100
AcDbArc
 50
301.8819613334965
 51
121.8819663424528
  0
ARC
  5
438
330
3F9
100
AcDbEntity
  8
0
  6
Continuous
 62
     4
370
    20
100
AcDbCircle
 10
0.0
 20
-1.0
 30
0.0
 40
7.5
100
AcDbArc
 50
72.06605676304572
 51
107.9339345855322
  0
ARC
  5
439
330
3F9
100
AcDbEntity
  8
0
  6
Continuous
 62
     4
370
    20
100
AcDbCircle
 10
-3.464111328125
 20
4.4884033203125
 30
0.0
 40
2.011653184890747
100
AcDbArc
 50
54.969960081815
 51
125.0300415120467
  0
ARC
  5
43A
330
3F9
100
AcDbEntity
  8
0
  6
Continuous
 62
     4
370
    20
100
AcDbCircle
 10
11.0
 20
12.29997085935591
 30
0.0
 40
0.5
100
AcDbArc
 50
0.0
 51
97.1006408249592
  0
ENDBLK
  5
43B
330
3F9
100
AcDbEntity
  8
0
100
AcDbBlockEnd
  0
BLOCK
  5
43D
330
43C
100
AcDbEntity
  8
0
100
AcDbBlockBegin
  2
DTL0003
 70
     0
 10
0.0
 20
0.0
 30
0.0
  3
DTL0003
  1

  0
LINE
  5
43E
330
43C
100
AcDbEntity
  8
0
  6
CENTER
 62
     1
370
     9
100
AcDbLine
 10
-14.78316976092466
 20
-2.541238245353084
 30
0.0
 11
96.58337577138389
 21
16.60275653630888
 31
0.0
  0
LINE
  5
43F
330
43C
100
AcDbEntity
  8
0
  6
CENTER
 62
     1
370
     9
100
AcDbLine
 10
18.99087551171719
 20
7.576882426066711
 30
0.0
 11
20.43091051741743
 21
-0.8002471051246216
 31
0.0
  0
LINE
  5
440
330
43C
100
AcDbEntity
  8
0
  6
CENTER
 62
     1
370
     9
100
AcDbLine
 10
53.4002303456995
 20
13.99921065725569
 30
0.0
 11
55.00968123442332
 21
4.636536475335852
 31
0.0
  0
LINE
  5
441
330
43C
100
AcDbEntity
  8
0
  6
DASHED
 62
     5
370
    20
100
AcDbLine
 10
-6.613738083151457
 20
-8.746911944651639
 30
0.0
 11
24.80004882812404
 21
-3.346857827616726
 31
0.0
  0
LINE
  5
442
330
43C
100
AcDbEntity
  8
0
  6
Continuous
 62
     4
370
    20
100
AcDbLine
 10
34.46389792165472
 20
13.53437582860651
 30
0.0
 11
52.75177409525931
 21
16.67807580027887
 31
0.0
  0
LINE
  5
443
330
43C
100
AcDbEntity
  8
0
  6
DASHED
 62
     5
370
    20
100
AcDbLine
 10
79.99999999999984
 20
21.36206677832853
 30
0.0
 11
82.99344851460077
 21
21.87664287897689
 31
0.0
  0
LINE
  5
444
330
43C
100
AcDbEntity
  8
0
  6
Continuous
 62
     4
370
    20
100
AcDbLine
 10
70.58647985562817
 20
16.1925396302146
 30
0.0
 11
66.03444418215779
 21
15.41004119890989
 31
0.0
  0
LINE
  5
445
330
43C
100
AcDbEntity
  8
0
  6
Continuous
 62
     4
370
    20
100
AcDbLine
 10
64.43608980407744
 20
11.07661344056605
 30
0.0
 11
66.03444415455988
 21
15.41004117595468
 31
0.0
  0
LINE
  5
446
330
43C
100
AcDbEntity
  8
0
  6
Continuous
 62
     4
370
    20
100
AcDbLine
 10
73.54016127357027
 20
12.64161032424216
 30
0.0
 11
70.58647988930653
 21
16.19253961779278
 31
0.0
  0
LINE
  5
447
330
43C
100
AcDbEntity
  8
0
  6
Continuous
 62
     4
370
    20
100
AcDbLine
 10
27.8029480738104
 20
12.38935342965784
 30
0.0
 11
30.34418631916376
 21
-2.393816331268099
 31
0.0
  0
LINE
  5
448
330
43C
100
AcDbEntity
  8
0
  6
Continuous
 62
     4
370
    20
100
AcDbLine
 10
39.48689245235163
 20
-0.8221781192052857
 30
0.0
 11
57.76375738443353
 21
2.319629011585257
 31
0.0
  0
LINE
  5
449
330
43C
100
AcDbEntity
  8
0
  6
DASHED
 62
     5
370
    20
100
AcDbLine
 10
37.48825129104941
 20
-1.16574607113825
 30
0.0
 11
39.48689245235163
 21
-0.8221781192052848
 31
0.0
  0
LINE
  5
44A
330
43C
100
AcDbEntity
  8
0
  6
Continuous
 62
     4
370
    20
100
AcDbLine
 10
60.74646072970526
 20
18.05236857805447
 30
0.0
 11
80.00000000000001
 21
21.36206677832876
 31
0.0
  0
LINE
  5
44B
330
43C
100
AcDbEntity
  8
0
  6
DASHED
 62
     5
370
    20
100
AcDbLine
 10
57.76375738443357
 20
2.319629011585262
 30
0.0
 11
65.71295817320145
 21
3.686102737524858
 31
0.0
  0
LINE
  5
44C
330
43C
100
AcDbEntity
  8
0
  6
DASHED
 62
     5
370
    20
100
AcDbLine
 10
52.70000000308994
 20
16.66917579403763
 30
0.0
 11
60.74646072970526
 21
18.05236857805447
 31
0.0
  0
LINE
  5
44D
330
43C
100
AcDbEntity
  8
0
  6
Continuous
 62
     4
370
    20
100
AcDbLine
 10
67.38977121266708
 20
7.52568400550507
 30
0.0
 11
64.43608982840334
 21
11.07661329905568
 31
0.0
  0
LINE
  5
44E
330
43C
100
AcDbEntity
  8
0
  6
DASHED
 62
     5
370
    20
100
AcDbLine
 10
-10.78723386391355
 20
3.726336748770693
 30
0.0
 11
-8.923659150654401
 21
-7.114654409241733
 31
0.0
  0
LINE
  5
44F
330
43C
100
AcDbEntity
  8
0
  6
DASHED
 62
     5
370
    20
100
AcDbLine
 10
-9.154976328503712
 20
6.036257816274561
 30
0.0
 11
22.27208009712819
 21
11.43859297302728
 31
0.0
  0
LINE
  5
450
330
43C
100
AcDbEntity
  8
0
  6
CENTER
 62
     1
370
     9
100
AcDbLine
 10
-0.8894333858736924
 20
5.174109416324171
 30
0.0
 11
0.8894333858736732
 21
-5.174109416324058
 31
0.0
  0
LINE
  5
451
330
43C
100
AcDbEntity
  8
0
  6
CENTER
 62
     1
370
     9
100
AcDbLine
 10
82.96656986755101
 20
19.08168714796235
 30
0.0
 11
84.5760207562748
 21
9.719012966042624
 31
0.0
  0
LINE
  5
452
330
43C
100
AcDbEntity
  8
0
  6
CENTER
 62
     1
370
     9
100
AcDbLine
 10
68.18340010662502
 20
16.54044890260898
 30
0.0
 11
69.79285099534883
 21
7.177774720689141
 31
0.0
  0
LINE
  5
453
330
43C
100
AcDbEntity
  8
0
  6
Continuous
 62
     4
370
    20
100
AcDbLine
 10
24.80004882812404
 20
-3.346857827616726
 30
0.0
 11
37.4882512910494
 21
-1.165746071138253
 31
0.0
  0
LINE
  5
454
330
43C
100
AcDbEntity
  8
0
  6
Continuous
 62
     4
370
    20
100
AcDbLine
 10
71.94180691981632
 20
8.308182424387942
 30
0.0
 11
67.38977124634573
 21
7.525683993083196
 31
0.0
  0
LINE
  5
455
330
43C
100
AcDbEntity
  8
0
  6
Continuous
 62
     4
370
    20
100
AcDbLine
 10
65.71295817320138
 20
3.686102737524847
 30
0.0
 11
85.20653715344749
 21
7.037063948452254
 31
0.0
  0
LINE
  5
456
330
43C
100
AcDbEntity
  8
0
  6
Continuous
 62
     4
370
    20
100
AcDbLine
 10
73.54016129789599
 20
12.64161018273213
 30
0.0
 11
71.94180694741351
 21
8.308182447343398
 31
0.0
  0
LINE
  5
457
330
43C
100
AcDbEntity
  8
0
  6
Continuous
 62
     4
370
    20
100
AcDbLine
 10
22.27208009712821
 20
11.43859297302728
 30
0.0
 11
32.46525676035212
 21
13.1908078766736
 31
0.0
  0
LINE
  5
458
330
43C
100
AcDbEntity
  8
0
  6
DASHED
 62
     5
370
    20
100
AcDbLine
 10
32.46525676035212
 20
13.1908078766736
 30
0.0
 11
34.46389792165439
 21
13.53437582860657
 31
0.0
  0
CIRCLE
  5
459
330
43C
100
AcDbEntity
  8
0
  6
Continuous
 62
     4
370
    20
100
AcDbCircle
 10
68.98812555098686
 20
11.85911181164897
 30
0.0
 40
2.5
  0
CIRCLE
  5
45A
330
43C
100
AcDbEntity
  8
0
  6
Continuous
 62
     4
370
    20
100
AcDbCircle
 10
68.98812555098686
 20
11.85911181164897
 30
0.0
 40
4.0
  0
CIRCLE
  5
45B
330
43C
100
AcDbEntity
  8
0
  6
DASHED
 62
     5
370
    20
100
AcDbCircle
 10
-0.0000000000004547
 20
0.0
 30
0.0
 40
2.75
  0
ARC
  5
45C
330
43C
100
AcDbEntity
  8
0
  6
DASHED
 62
     5
370
    20
100
AcDbCircle
 10
83.7712953119127
 20
14.40035005700242
 30
0.0
 40
2.75
100
AcDbArc
 50
266.2279545724786
 51
132.3393426110567
  0
CIRCLE
  5
45D
330
43C
100
AcDbEntity
  8
0
  6
DASHED
 62
     5
370
    20
100
AcDbCircle
 10
19.71089301456732
 20
3.388317660471216
 30
0.0
 40
2.25
  0
ARC
  5
45E
330
43C
100
AcDbEntity
  8
0
  6
DASHED
 62
     5
370
    20
100
AcDbCircle
 10
54.20495579006109
 20
9.317873566295618
 30
0.0
 40
2.75
100
AcDbArc
 50
311.9334603031988
 51
86.63383688033658
  0
ARC
  5
45F
330
43C
100
AcDbEntity
  8
0
  6
DASHED
 62
     5
370
    20
100
AcDbCircle
 10
-6.952569849198077
 20
-6.775822643194612
 30
0.0
 40
2.0
100
AcDbArc
 50
189.7538503564185
 51
279.7538596910859
  0
ARC
  5
460
330
43C
100
AcDbEntity
  8
0
  6
DASHED
 62
     5
370
    20
100
AcDbCircle
 10
-8.816144562457111
 20
4.065168514817628
 30
0.0
 40
2.0
100
AcDbArc
 50
99.75386151231875
 51
189.7538640167969
  0
ARC
  5
461
330
43C
100
AcDbEntity
  8
0
  6
DASHED
 62
     5
370
    20
100
AcDbCircle
 10
84.26406763727715
 20
14.48505799851409
 30
0.0
 40
7.5
100
AcDbArc
 50
279.7538565033625
 51
99.7538615123188
  0
ARC
  5
462
330
43C
100
AcDbEntity
  8
0
  6
Continuous
 62
     4
370
    20
100
AcDbCircle
 10
54.20495579006109
 20
9.317873566295618
 30
0.0
 40
2.75
100
AcDbArc
 50
86.63383688033659
 51
311.9334603031988
  0
ARC
  5
463
330
43C
100
AcDbEntity
  8
0
  6
Continuous
 62
     4
370
    20
100
AcDbCircle
 10
83.7712953119127
 20
14.40035005700242
 30
0.0
 40
2.75
100
AcDbArc
 50
132.3393426110567
 51
266.2279545724786
  0
ENDBLK
  5
464
330
43C
100
AcDbEntity
  8
0
100
AcDbBlockEnd
  0
BLOCK
  5
466
330
465
100
AcDbEntity
  8
0
100
AcDbBlockBegin
  2
_Open
 70
     0
 10
0.0
 20
0.0
 30
0.0
  3
_Open
  1

  0
LINE
  5
467
330
465
100
AcDbEntity
  8
0
  6
ByBlock
 62
     0
370
    -2
100
AcDbLine
 10
-1.0
 20
0.166667
 30
0.0
 11
0.0
 21
0.0
 31
0.0
  0
LINE
  5
468
330
465
100
AcDbEntity
  8
0
  6
ByBlock
 62
     0
370
    -2
100
AcDbLine
 10
-1.0
 20
-0.166667
 30
0.0
 11
0.0
 21
0.0
 31
0.0
  0
LINE
  5
469
330
465
100
AcDbEntity
  8
0
  6
ByBlock
 62
     0
370
    -2
100
AcDbLine
 10
0.0
 20
0.0
 30
0.0
 11
-1.0
 21
0.0
 31
0.0
  0
ENDBLK
  5
46A
330
465
100
AcDbEntity
  8
0
100
AcDbBlockEnd
  0
BLOCK
  5
48F
330
48E
100
AcDbEntity
  8
0
100
AcDbBlockBegin
  2
SYM0013
 70
     0
 10
0.0
 20
0.0
 30
0.0
  3
SYM0013
  1

  0
CIRCLE
  5
490
330
48E
100
AcDbEntity
  8
0
  6
Continuous
 62
     7
100
AcDbCircle
 10
0.0
 20
0.0
 30
0.0
 40
4.0
  0
MTEXT
  5
491
102
{ACAD_XDICTIONARY
360
1330
102
}
330
48E
100
AcDbEntity
  8
0
 62
     7
100
AcDbMText
 10
0.0
 20
0.0
 30
0.0
 40
4.0
 41
0.0
 71
     5
 72
     1
  1
{\W0.651042;\U+FF19}
 73
     1
 44
1.0
1001
ACAD
1000
MTEXTBEGIN
1070
    73
1070
     1
1070
    44
1040
1.0
1070
    74
1070
     0
1000
MTEXTEND
  0
LINE
  5
492
330
48E
100
AcDbEntity
  8
0
  6
Continuous
 62
     7
100
AcDbLine
 10
39.99999999999995
 20
-14.99999999999994
 30
0.0
 11
3.745316710276142
 21
-1.404493766353539
 31
0.0
  0
CIRCLE
  5
493
330
48E
100
AcDbEntity
  8
0
  6
Continuous
 62
     7
100
AcDbCircle
 10
39.99999999999995
 20
-14.99999999999994
 30
0.0
 40
0.4
  0
ENDBLK
  5
494
330
48E
100
AcDbEntity
  8
0
100
AcDbBlockEnd
  0
BLOCK
  5
496
330
495
100
AcDbEntity
  8
0
100
AcDbBlockBegin
  2
SYM0014
 70
     0
 10
0.0
 20
0.0
 30
0.0
  3
SYM0014
  1

  0
CIRCLE
  5
497
330
495
100
AcDbEntity
  8
0
  6
Continuous
 62
     7
100
AcDbCircle
 10
0.0
 20
0.0
 30
0.0
 40
4.0
  0
MTEXT
  5
498
102
{ACAD_XDICTIONARY
360
1332
102
}
330
495
100
AcDbEntity
  8
0
 62
     7
100
AcDbMText
 10
0.0
 20
0.0
 30
0.0
 40
4.0
 41
0.0
 71
     5
 72
     1
  1
{\W0.651042;\U+FF11\U+FF13}
 73
     1
 44
1.0
1001
ACAD
1000
MTEXTBEGIN
1070
    73
1070
     1
1070
    44
1040
1.0
1070
    74
1070
     0
1000
MTEXTEND
  0
LINE
  5
499
330
495
100
AcDbEntity
  8
0
  6
Continuous
 62
     7
100
AcDbLine
 10
17.11047749376257
 20
10.95778198981963
 30
0.0
 11
3.368452952008055
 21
2.157202983056606
 31
0.0
  0
CIRCLE
  5
49A
330
495
100
AcDbEntity
  8
0
  6
Continuous
 62
     7
100
AcDbCircle
 10
17.11047749376257
 20
10.95778198981963
 30
0.0
 40
0.4
  0
ENDBLK
  5
49B
330
495
100
AcDbEntity
  8
0
100
AcDbBlockEnd
  0
BLOCK
  5
49D
330
49C
100
AcDbEntity
  8
0
100
AcDbBlockBegin
  2
SYM0019
 70
     0
 10
0.0
 20
0.0
 30
0.0
  3
SYM0019
  1

  0
CIRCLE
  5
49E
330
49C
100
AcDbEntity
  8
0
  6
Continuous
 62
     7
100
AcDbCircle
 10
0.0
 20
0.0
 30
0.0
 40
4.0
  0
MTEXT
  5
49F
102
{ACAD_XDICTIONARY
360
1334
102
}
330
49C
100
AcDbEntity
  8
0
 62
     7
100
AcDbMText
 10
0.0
 20
0.0
 30
0.0
 40
4.0
 41
0.0
 71
     5
 72
     1
  1
{\W0.651042;\U+FF11\U+FF16}
 73
     1
 44
1.0
1001
ACAD
1000
MTEXTBEGIN
1070
    73
1070
     1
1070
    44
1040
1.0
1070
    74
1070
     0
1000
MTEXTEND
  0
LINE
  5
4A0
330
49C
100
AcDbEntity
  8
0
  6
Continuous
 62
     7
100
AcDbLine
 10
-53.21649634202174
 20
25.7735448578718
 30
0.0
 11
-3.600010102162627
 21
1.743538718906847
 31
0.0
  0
CIRCLE
  5
4A1
330
49C
100
AcDbEntity
  8
0
  6
Continuous
 62
     7
100
AcDbCircle
 10
-53.21649634202174
 20
25.7735448578718
 30
0.0
 40
0.4
  0
ENDBLK
  5
4A2
330
49C
100
AcDbEntity
  8
0
100
AcDbBlockEnd
  0
BLOCK
  5
4A4
330
4A3
100
AcDbEntity
  8
0
100
AcDbBlockBegin
  2
SYM0020
 70
     0
 10
0.0
 20
0.0
 30
0.0
  3
SYM0020
  1

  0
LINE
  5
4A5
330
4A3
100
AcDbEntity
  8
0
  6
Continuous
 62
     7
100
AcDbLine
 10
0.0
 20
0.0
 30
0.0
 11
7.5
 21
12.99038105676652
 31
0.0
  0
LINE
  5
4A6
330
4A3
100
AcDbEntity
  8
0
  6
Continuous
 62
     7
100
AcDbLine
 10
0.0
 20
0.0
 30
0.0
 11
1.081552053322354
 21
2.971303107384756
 31
0.0
  0
LINE
  5
4A7
330
4A3
100
AcDbEntity
  8
0
  6
Continuous
 62
     7
100
AcDbLine
 10
0.0
 20
0.0
 30
0.0
 11
2.032447946677677
 21
2.422303107384777
 31
0.0
  0
LINE
  5
4A8
330
4A3
100
AcDbEntity
  8
0
  6
Continuous
 62
     7
100
AcDbLine
 10
7.5
 20
12.99038105676652
 30
0.0
 11
32.01470046863557
 21
12.99038105676652
 31
0.0
  0
MTEXT
  5
4A9
102
{ACAD_XDICTIONARY
360
1336
102
}
330
4A3
100
AcDbEntity
  8
0
 62
     7
100
AcDbMText
 10
7.799254271161316
 20
13.95038103530885
 30
0.0
 40
3.839999914169311
 41
0.0
 71
     7
 72
     1
  1
{\W0.651042;\U+3000\U+FF32\U+FF43\U+FF11\U+FF0F\U+FF14}
 73
     1
 44
1.0
1001
ACAD
1000
MTEXTBEGIN
1070
    73
1070
     1
1070
    44
1040
1.0
1070
    74
1070
     0
1000
MTEXTEND
  0
MTEXT
  5
4AA
102
{ACAD_XDICTIONARY
360
1338
102
}
330
4A3
100
AcDbEntity
  8
0
 62
     7
100
AcDbMText
 10
7.799254271161316
 20
7.230381185512555
 30
0.0
 40
3.839999914169311
 41
0.0
 71
     7
 72
     1
  1
{\W0.651042;\U+FF08\U+FF21\U+FF49\U+FF52\U+3000\U+FF49\U+FF4E\U+FF09}
 73
     1
 44
1.0
1001
ACAD
1000
MTEXTBEGIN
1070
    73
1070
     1
1070
    44
1040
1.0
1070
    74
1070
     0
1000
MTEXTEND
  0
ENDBLK
  5
4AB
330
4A3
100
AcDbEntity
  8
0
100
AcDbBlockEnd
  0
BLOCK
  5
4BA
330
4B9
100
AcDbEntity
  8
0
100
AcDbBlockBegin
  2
SYM0023
 70
     0
 10
0.0
 20
0.0
 30
0.0
  3
SYM0023
  1

  0
LINE
  5
4BB
330
4B9
100
AcDbEntity
  8
0
  6
Continuous
 62
     7
100
AcDbLine
 10
0.0
 20
0.0
 30
0.0
 11
-8.333333333333399
 21
14.4337567297407
 31
0.0
  0
LINE
  5
4BC
330
4B9
100
AcDbEntity
  8
0
  6
Continuous
 62
     7
100
AcDbLine
 10
0.0
 20
0.0
 30
0.0
 11
-2.032447946677677
 21
2.422303107384777
 31
0.0
  0
LINE
  5
4BD
330
4B9
100
AcDbEntity
  8
0
  6
Continuous
 62
     7
100
AcDbLine
 10
0.0
 20
0.0
 30
0.0
 11
-1.081552053322354
 21
2.971303107384756
 31
0.0
  0
LINE
  5
4BE
330
4B9
100
AcDbEntity
  8
0
  6
Continuous
 62
     7
100
AcDbLine
 10
-8.333333333333371
 20
14.4337567297407
 30
0.0
 11
-53.84803421920145
 21
14.4337567297407
 31
0.0
  0
MTEXT
  5
4BF
102
{ACAD_XDICTIONARY
360
4C0
102
}
330
4B9
100
AcDbEntity
  8
0
 62
     7
100
AcDbMText
 10
-9.011615603177546
 20
15.39375670828303
 30
0.0
 40
3.839999914169311
 41
0.0
 71
     9
 72
     1
  1
{\W0.651042;\U+FF12\U+FF0D\U+2205\U+FF18\U+3000\U+FF2E\U+FF59\U+FF4C\U+FF4F\U+FF4E\U+3000\U+FF54\U+FF55\U+FF42\U+FF45}
 73
     1
 44
1.0
1001
ACAD
1000
MTEXTBEGIN
1070
    73
1070
     1
1070
    44
1040
1.0
1070
    74
1070
     0
1000
MTEXTEND
  0
ENDBLK
  5
4C1
330
4B9
100
AcDbEntity
  8
0
100
AcDbBlockEnd
  0
BLOCK
  5
4C3
330
4C2
100
AcDbEntity
  8
0
100
AcDbBlockBegin
  2
SYM0024
 70
     0
 10
0.0
 20
0.0
 30
0.0
  3
SYM0024
  1

  0
LINE
  5
4C4
330
4C2
100
AcDbEntity
  8
0
  6
Continuous
 62
     7
100
AcDbLine
 10
0.0
 20
0.0
 30
0.0
 11
-10.57086222557922
 21
-18.30927045451386
 31
0.0
  0
LINE
  5
4C5
330
4C2
100
AcDbEntity
  8
0
  6
Continuous
 62
     7
100
AcDbLine
 10
0.0
 20
0.0
 30
0.0
 11
-1.081552053322354
 21
-2.971303107384756
 31
0.0
  0
LINE
  5
4C6
330
4C2
100
AcDbEntity
  8
0
  6
Continuous
 62
     7
100
AcDbLine
 10
0.0
 20
0.0
 30
0.0
 11
-2.032447946677677
 21
-2.422303107384777
 31
0.0
  0
LINE
  5
4C7
330
4C2
100
AcDbEntity
  8
0
  6
Continuous
 62
     7
100
AcDbLine
 10
-10.57086222557922
 20
-18.30927045451381
 30
0.0
 11
-24.14469663279573
 21
-18.30927045451381
 31
0.0
  0
MTEXT
  5
4C8
102
{ACAD_XDICTIONARY
360
133B
102
}
330
4C2
100
AcDbEntity
  8
0
 62
     7
100
AcDbMText
 10
-12.17966781888867
 20
-17.34927047597136
 30
0.0
 40
3.839999914169311
 41
0.0
 71
     9
 72
     1
  1
{\W0.651042;\U+FF27\U+FF11\U+FF0F\U+FF12}
 73
     1
 44
1.0
1001
ACAD
1000
MTEXTBEGIN
1070
    73
1070
     1
1070
    44
1040
1.0
1070
    74
1070
     0
1000
MTEXTEND
  0
ENDBLK
  5
4C9
330
4C2
100
AcDbEntity
  8
0
100
AcDbBlockEnd
  0
ENDSEC
  0
SECTION
  2
ENTITIES
  0
LINE
  5
38A
330
1F
100
AcDbEntity
  8
1
100
AcDbLine
 10
0.0
 20
-51.10130938070563
 30
0.0
 11
0.0
 21
109.2867751469213
 31
0.0
  0
CIRCLE
  5
38C
330
1F
100
AcDbEntity
  8
2
100
AcDbCircle
 10
0.0
 20
-21.4999999999481
 30
0.0
 40
8.000061035156246
  0
LINE
  5
38D
330
1F
100
AcDbEntity
  8
1
100
AcDbLine
 10
12.12266191247363
 20
-21.4999999999481
 30
0.0
 11
-12.12266191247363
 21
-21.4999999999481
 31
0.0
  0
LINE
  5
395
330
1F
100
AcDbEntity
  8
2
100
AcDbLine
 10
44.50001525878406
 20
0.0
 30
0.0
 11
-44.50001525878406
 21
0.0
 31
0.0
  0
LINE
  5
396
330
1F
100
AcDbEntity
  8
2
100
AcDbLine
 10
-53.50001525878315
 20
-41.79139326884524
 30
0.0
 11
-53.50001525878224
 21
-8.999999999998863
 31
0.0
  0
ARC
  5
397
330
1F
100
AcDbEntity
  8
2
100
AcDbCircle
 10
-44.50001525878406
 20
-8.999999999998863
 30
0.0
 40
8.999999999998973
100
AcDbArc
 50
90.0
 51
180.0000025044817
  0
ARC
  5
398
330
1F
100
AcDbEntity
  8
2
100
AcDbCircle
 10
44.50001525878406
 20
-8.999999999998863
 30
0.0
 40
8.999999999998973
100
AcDbArc
 50
359.9999974955182
 51
90.0
  0
LINE
  5
399
330
1F
100
AcDbEntity
  8
2
100
AcDbLine
 10
53.50001525878315
 20
-41.79139326884524
 30
0.0
 11
53.50001525878315
 21
-8.999999999998863
 31
0.0
  0
LINE
  5
D54
330
1F
100
AcDbEntity
  8
1
100
AcDbLine
 10
0.0
 20
474.0636343514901
 30
0.0
 11
0.0
 21
334.0636343514901
 31
0.0
  0
LINE
  5
D55
330
1F
100
AcDbEntity
  8
1
100
AcDbLine
 10
87.64874835937519
 20
404.0636343514901
 30
0.0
 11
-87.64874835937519
 21
404.0636343514901
 31
0.0
  0
LINE
  5
D5A
330
1F
100
AcDbEntity
  8
0
100
AcDbLine
 10
27.85118699601844
 20
382.5636496102793
 30
0.0
 11
27.85118699601844
 21
356.0636496102793
 31
0.0
  0
LINE
  5
D5B
330
1F
100
AcDbEntity
  8
0
100
AcDbLine
 10
30.83459268664399
 20
382.5636496102793
 30
0.0
 11
91.76406763727754
 21
382.5636496102793
 31
0.0
  0
LINE
  5
D5C
330
1F
100
AcDbEntity
  8
0
100
AcDbLine
 10
25.04836662508774
 20
353.0636496102792
 30
0.0
 11
25.04836662508774
 21
344.0636496102792
 31
0.0
  0
LINE
  5
D5D
330
1F
100
AcDbEntity
  8
0
100
AcDbLine
 10
7.010055541992187
 20
353.0636496102792
 30
0.0
 11
27.87227706342628
 21
353.0636496102792
 31
0.0
  0
LINE
  5
D5E
330
1F
100
AcDbEntity
  8
0
100
AcDbLine
 10
7.010055541992187
 20
355.5636496102792
 30
0.0
 11
27.35118699601844
 21
355.5636496102792
 31
0.0
  0
LINE
  5
D61
330
1F
100
AcDbEntity
  8
0
100
AcDbLine
 10
30.33459268664399
 20
382.0636496102793
 30
0.0
 11
30.33459268664399
 21
355.5636496102794
 31
0.0
  0
LINE
  5
D63
330
1F
100
AcDbEntity
  8
0
100
AcDbLine
 10
-125.0000000000001
 20
369.0636496102792
 30
0.0
 11
6.017302736884175
 21
369.0636496102792
 31
0.0
  0
LINE
  5
D66
330
1F
100
AcDbEntity
  8
0
100
AcDbLine
 10
-167.3999542236329
 20
327.5636496102791
 30
0.0
 11
-167.3999542236329
 21
334.5636496102792
 31
0.0
  0
LINE
  5
D67
330
1F
100
AcDbEntity
  8
0
100
AcDbLine
 10
-162.7999542236327
 20
324.0636496102792
 30
0.0
 11
-166.8999542236329
 21
324.0636496102792
 31
0.0
  0
LINE
  5
D68
330
1F
100
AcDbEntity
  8
0
100
AcDbLine
 10
-147.0999542286892
 20
348.2636496092705
 30
0.0
 11
-160.299954220543
 21
348.2636496102792
 31
0.0
  0
LINE
  5
D69
330
1F
100
AcDbEntity
  8
0
100
AcDbLine
 10
-162.7999542236327
 20
331.0636496102793
 30
0.0
 11
-166.8999542236329
 21
331.0636496102793
 31
0.0
  0
LINE
  5
D6A
330
1F
100
AcDbEntity
  8
0
100
AcDbLine
 10
-162.2999542236327
 20
324.3038905523953
 30
0.0
 11
-162.2999542236327
 21
337.8234086681637
 31
0.0
  0
LINE
  5
D6B
330
1F
100
AcDbEntity
  8
0
100
AcDbLine
 10
35.0
 20
350.0636496102792
 30
0.0
 11
35.0
 21
302.0636496102791
 31
0.0
  0
LINE
  5
D6D
330
1F
100
AcDbEntity
  8
0
100
AcDbLine
 10
35.0
 20
302.0636496102792
 30
0.0
 11
99.99999999999989
 21
302.0636496102792
 31
0.0
  0
LINE
  5
D6E
330
1F
100
AcDbEntity
  8
0
100
AcDbLine
 10
35.0
 20
350.0636496102792
 30
0.0
 11
99.99999999999989
 21
350.0636496102792
 31
0.0
  0
LINE
  5
D70
330
1F
100
AcDbEntity
  8
0
100
AcDbLine
 10
104.75
 20
299.0636496102792
 30
0.0
 11
104.75
 21
302.5383972205598
 31
0.0
  0
LINE
  5
D71
330
1F
100
AcDbEntity
  8
0
100
AcDbLine
 10
107.0
 20
292.0636496102792
 30
0.0
 11
107.0
 21
299.0636496102792
 31
0.0
  0
LINE
  5
D72
330
1F
100
AcDbEntity
  8
0
100
AcDbLine
 10
118.7499999858073
 20
271.0636496102792
 30
0.0
 11
118.7499999858073
 21
267.5636496102792
 31
0.0
  0
LINE
  5
D73
330
1F
100
AcDbEntity
  8
0
100
AcDbLine
 10
118.4999999859965
 20
271.0636496102792
 30
0.0
 11
118.4999999859965
 21
292.0636496102792
 31
0.0
  0
LINE
  5
D92
330
1F
100
AcDbEntity
  8
0
100
AcDbLine
 10
95.25
 20
299.0636496102792
 30
0.0
 11
95.25
 21
302.0636496102791
 31
0.0
  0
LINE
  5
D93
330
1F
100
AcDbEntity
  8
0
100
AcDbLine
 10
93.0
 20
292.0636496102792
 30
0.0
 11
93.0
 21
299.0636496102792
 31
0.0
  0
LINE
  5
D94
330
1F
100
AcDbEntity
  8
0
100
AcDbLine
 10
81.25000001419266
 20
271.0636496102792
 30
0.0
 11
81.25000001419266
 21
267.5636496102792
 31
0.0
  0
LINE
  5
D95
330
1F
100
AcDbEntity
  8
0
100
AcDbLine
 10
81.25000001419266
 20
271.0636496102792
 30
0.0
 11
118.7499999858072
 21
271.0636496102792
 31
0.0
  0
LINE
  5
D96
330
1F
100
AcDbEntity
  8
0
100
AcDbLine
 10
81.25000001419266
 20
267.5636496102792
 30
0.0
 11
118.7499999858072
 21
267.5636496102792
 31
0.0
  0
LINE
  5
D97
330
1F
100
AcDbEntity
  8
0
100
AcDbLine
 10
81.50000001400348
 20
271.0636496102792
 30
0.0
 11
81.50000001400348
 21
292.0636496102792
 31
0.0
  0
LINE
  5
D99
330
1F
100
AcDbEntity
  8
0
100
AcDbLine
 10
107.0
 20
299.0636496102792
 30
0.0
 11
92.99999999999988
 21
299.0636496102792
 31
0.0
  0
LINE
  5
D9A
330
1F
100
AcDbEntity
  8
0
100
AcDbLine
 10
118.4999999859964
 20
292.0636496102792
 30
0.0
 11
81.5
 21
292.0636496102792
 31
0.0
  0
LINE
  5
DBB
330
1F
100
AcDbEntity
  8
0
100
AcDbLine
 10
120.0
 20
308.0636496102792
 30
0.0
 11
120.0
 21
312.5636496102792
 31
0.0
  0
LINE
  5
DBC
330
1F
100
AcDbEntity
  8
0
100
AcDbLine
 10
120.0
 20
312.7971504488576
 30
0.0
 11
120.0
 21
308.0636496102792
 31
0.0
  0
LINE
  5
DBE
330
1F
100
AcDbEntity
  8
0
100
AcDbLine
 10
116.0
 20
304.0636496102792
 30
0.0
 11
109.5916630466254
 21
304.0636496102792
 31
0.0
  0
LINE
  5
DC4
330
1F
100
AcDbEntity
  8
0
100
AcDbLine
 10
116.0
 20
348.0636496102792
 30
0.0
 11
109.5916630466254
 21
348.0636496102792
 31
0.0
  0
LINE
  5
DC6
330
1F
100
AcDbEntity
  8
0
100
AcDbLine
 10
120.0
 20
344.0636496102791
 30
0.0
 11
120.0
 21
339.5636496102792
 31
0.0
  0
LINE
  5
DC7
330
1F
100
AcDbEntity
  8
0
100
AcDbLine
 10
120.0
 20
344.0636496102791
 30
0.0
 11
120.0
 21
339.3301487717009
 31
0.0
  0
LINE
  5
DC9
330
1F
100
AcDbEntity
  8
0
100
AcDbLine
 10
4.999999999999772
 20
372.0636496102792
 30
0.0
 11
-125.0000000000002
 21
372.0636496102792
 31
0.0
  0
LINE
  5
DCA
330
1F
100
AcDbEntity
  8
0
100
AcDbLine
 10
5.0
 20
369.0636496102792
 30
0.0
 11
5.0
 21
377.2308249032479
 31
0.0
  0
LINE
  5
DCC
330
1F
100
AcDbEntity
  8
0
100
AcDbLine
 10
-6.656924187363756
 20
428.460567800843
 30
0.0
 11
-118.4201952853591
 21
387.7820623803186
 31
0.0
  0
LINE
  5
DCD
330
1F
100
AcDbEntity
  8
0
100
AcDbLine
 10
-125.0
 20
369.0636496102792
 30
0.0
 11
-125.0
 21
378.3851217782478
 31
0.0
  0
LINE
  5
DCE
330
1F
100
AcDbEntity
  8
0
100
AcDbLine
 10
-0.0000000000002274
 20
429.0636343514901
 30
0.0
 11
-3.236724853515852
 21
429.0636343514901
 31
0.0
  0
LINE
  5
DD5
330
1F
100
AcDbEntity
  8
0
100
AcDbLine
 10
-109.3708350511064
 20
379.1636493519937
 30
0.0
 11
-120.6291649488939
 21
379.1636493519937
 31
0.0
  0
LINE
  5
DDA
330
1F
100
AcDbEntity
  8
0
100
AcDbLine
 10
-107.4944465758624
 20
378.4387553340141
 30
0.0
 11
-107.4944465758624
 21
372.0636496102792
 31
0.0
  0
LINE
  5
DDB
330
1F
100
AcDbEntity
  8
0
100
AcDbLine
 10
-122.5055534241378
 20
378.4387553340141
 30
0.0
 11
-122.5055534241378
 21
372.0636496102792
 31
0.0
  0
LINE
  5
DE2
330
1F
100
AcDbEntity
  8
0
100
AcDbLine
 10
-16.0
 20
393.0636343514901
 30
0.0
 11
-16.0
 21
419.0636343514901
 31
0.0
  0
LINE
  5
DE3
330
1F
100
AcDbEntity
  8
0
100
AcDbLine
 10
-16.00000000000022
 20
419.0636343514901
 30
0.0
 11
15.99999999999954
 21
419.0636343514901
 31
0.0
  0
LINE
  5
DE4
330
1F
100
AcDbEntity
  8
0
100
AcDbLine
 10
15.99999999999977
 20
393.0636343514901
 30
0.0
 11
15.99999999999977
 21
419.0636343514901
 31
0.0
  0
LINE
  5
DF1
330
1F
100
AcDbEntity
  8
0
100
AcDbLine
 10
-14.33012706716386
 20
385.0636345700417
 30
0.0
 11
-5.669872932836597
 21
385.0636345700417
 31
0.0
  0
LINE
  5
E04
330
1F
100
AcDbEntity
  8
0
100
AcDbLine
 10
-100.0500599993457
 20
269.2636007821544
 30
0.0
 11
24.55003765690281
 21
269.2636007821543
 31
0.0
  0
LINE
  5
E06
330
1F
100
AcDbEntity
  8
0
100
AcDbLine
 10
-93.33076477050793
 20
351.5636496102794
 30
0.0
 11
-13.70356750488292
 21
351.5636496102794
 31
0.0
  0
LINE
  5
E07
330
1F
100
AcDbEntity
  8
0
100
AcDbLine
 10
-97.99995422363293
 20
365.5636496102792
 30
0.0
 11
-10.99995422363281
 21
365.5636496102792
 31
0.0
  0
LINE
  5
E08
330
1F
100
AcDbEntity
  8
0
100
AcDbLine
 10
-98.99995422363293
 20
306.5636496102793
 30
0.0
 11
24.55003765690281
 21
306.5636496102793
 31
0.0
  0
LINE
  5
E0E
330
1F
100
AcDbEntity
  8
0
100
AcDbLine
 10
-99.18330383300782
 20
329.5636496102792
 30
0.0
 11
-99.18330383300782
 21
306.5636496102792
 31
0.0
  0
LINE
  5
E11
330
1F
100
AcDbEntity
  8
0
100
AcDbLine
 10
-161.4999542236329
 20
273.0636496102794
 30
0.0
 11
-104.4998888249781
 21
273.0636542807499
 31
0.0
  0
LINE
  5
E13
330
1F
100
AcDbEntity
  8
0
100
AcDbLine
 10
-148.5171661376953
 20
316.0636496102793
 30
0.0
 11
-134.4999542236328
 21
316.0636496102793
 31
0.0
  0
LINE
  5
E14
330
1F
100
AcDbEntity
  8
0
100
AcDbLine
 10
-134.4999542236358
 20
313.0636496102811
 30
0.0
 11
-148.4999542236356
 21
313.063649610281
 31
0.0
  0
LINE
  5
E16
330
1F
100
AcDbEntity
  8
0
100
AcDbLine
 10
-137.7499542236289
 20
305.0636496102772
 30
0.0
 11
-161.7499542236282
 21
305.0636496102793
 31
0.0
  0
LINE
  5
E17
330
1F
100
AcDbEntity
  8
0
100
AcDbLine
 10
-138.2499542236314
 20
281.5636496102781
 30
0.0
 11
-161.7499542236314
 21
281.5636496102781
 31
0.0
  0
LINE
  5
E1E
330
1F
100
AcDbEntity
  8
0
100
AcDbLine
 10
-164.9999542236328
 20
283.0636496102793
 30
0.0
 11
-164.9999542236328
 21
275.146840528248
 31
0.0
  0
LINE
  5
E1F
330
1F
100
AcDbEntity
  8
0
100
AcDbLine
 10
-164.9999976866125
 20
275.1468220911545
 30
0.0
 11
-161.4998986843557
 21
273.0636478704478
 31
0.0
  0
LINE
  5
E21
330
1F
100
AcDbEntity
  8
0
100
AcDbLine
 10
-164.9996208175331
 20
283.0635567460583
 30
0.0
 11
-166.3257569734165
 21
292.3465081604689
 31
0.0
  0
LINE
  5
E22
330
1F
100
AcDbEntity
  8
0
100
AcDbLine
 10
-164.9999542236329
 20
283.0636496102793
 30
0.0
 11
-162.9999542236328
 21
283.0636496102793
 31
0.0
  0
LINE
  5
E23
330
1F
100
AcDbEntity
  8
0
100
AcDbLine
 10
-162.9999542236328
 20
282.8136496102792
 30
0.0
 11
-162.999954223633
 21
303.8136496102793
 31
0.0
  0
LINE
  5
E24
330
1F
100
AcDbEntity
  8
0
100
AcDbLine
 10
-182.2500108573058
 20
294.0636496102793
 30
0.0
 11
-168.3061065673829
 21
294.0636496102793
 31
0.0
  0
LINE
  5
E25
330
1F
100
AcDbEntity
  8
0
100
AcDbLine
 10
-148.4999542236328
 20
305.0636496102792
 30
0.0
 11
-148.4999542236328
 21
313.0636496102793
 31
0.0
  0
LINE
  5
E26
330
1F
100
AcDbEntity
  8
0
100
AcDbLine
 10
-147.9846954345703
 20
313.0636496102793
 30
0.0
 11
-147.9846954345703
 21
316.0636496102792
 31
0.0
  0
LINE
  5
E2A
330
1F
100
AcDbEntity
  8
0
100
AcDbLine
 10
-125.0171661376954
 20
316.0636496102793
 30
0.0
 11
-110.9999542236328
 21
316.0636496102793
 31
0.0
  0
LINE
  5
E2B
330
1F
100
AcDbEntity
  8
0
100
AcDbLine
 10
-110.9999542236344
 20
313.0636496102805
 30
0.0
 11
-124.9999542236344
 21
313.0636496102802
 31
0.0
  0
LINE
  5
E2C
330
1F
100
AcDbEntity
  8
0
100
AcDbLine
 10
-97.74995502333005
 20
305.0636496102791
 30
0.0
 11
-137.749954223631
 21
305.0636496102778
 31
0.0
  0
LINE
  5
E2D
330
1F
100
AcDbEntity
  8
0
100
AcDbLine
 10
-97.74983215331747
 20
281.563649610277
 30
0.0
 11
-138.2499542236302
 21
281.5636496102773
 31
0.0
  0
LINE
  5
E33
330
1F
100
AcDbEntity
  8
0
100
AcDbLine
 10
-139.4999542236226
 20
282.8136496102727
 30
0.0
 11
-139.4999542236221
 21
305.0636496102772
 31
0.0
  0
LINE
  5
E34
330
1F
100
AcDbEntity
  8
0
100
AcDbLine
 10
-134.4999542236328
 20
305.0636496102792
 30
0.0
 11
-134.4999542236328
 21
313.0636496102793
 31
0.0
  0
LINE
  5
E35
330
1F
100
AcDbEntity
  8
0
100
AcDbLine
 10
-134.9213409423828
 20
313.0636496102793
 30
0.0
 11
-134.9213409423828
 21
316.0636496102792
 31
0.0
  0
LINE
  5
E36
330
1F
100
AcDbEntity
  8
0
100
AcDbLine
 10
-124.9999542236328
 20
305.0636496102792
 30
0.0
 11
-124.9999542236328
 21
313.0636496102793
 31
0.0
  0
LINE
  5
E37
330
1F
100
AcDbEntity
  8
0
100
AcDbLine
 10
-124.4846954345703
 20
313.0636496102793
 30
0.0
 11
-124.4846954345703
 21
316.0636496102792
 31
0.0
  0
LINE
  5
E39
330
1F
100
AcDbEntity
  8
0
100
AcDbLine
 10
-104.4998888249781
 20
273.0636542807499
 30
0.0
 11
-101.3788877133943
 21
274.9211986114263
 31
0.0
  0
LINE
  5
E3A
330
1F
100
AcDbEntity
  8
0
100
AcDbLine
 10
-101.1347198486328
 20
281.5636496102792
 30
0.0
 11
-101.1347198486328
 21
275.3421835458261
 31
0.0
  0
LINE
  5
E3C
330
1F
100
AcDbEntity
  8
0
100
AcDbLine
 10
-96.49995422363282
 20
282.8136496102792
 30
0.0
 11
-96.49995422363339
 21
303.8136507874661
 31
0.0
  0
LINE
  5
E3F
330
1F
100
AcDbEntity
  8
0
100
AcDbLine
 10
-110.9999542236328
 20
305.0636496102792
 30
0.0
 11
-110.9999542236328
 21
313.0636496102793
 31
0.0
  0
LINE
  5
E40
330
1F
100
AcDbEntity
  8
0
100
AcDbLine
 10
-99.79920209945248
 20
306.5635719140985
 30
0.0
 11
-99.77302136317758
 21
305.0636782971773
 31
0.0
  0
LINE
  5
E41
330
1F
100
AcDbEntity
  8
0
100
AcDbLine
 10
-110.9999542236328
 20
306.5636496102793
 30
0.0
 11
-98.99995422363293
 21
306.5636496102793
 31
0.0
  0
LINE
  5
E42
330
1F
100
AcDbEntity
  8
0
100
AcDbLine
 10
-111.5150909423828
 20
313.0636496102793
 30
0.0
 11
-111.5150909423828
 21
316.0636496102792
 31
0.0
  0
LINE
  5
E43
330
1F
100
AcDbEntity
  8
0
100
AcDbLine
 10
-147.0999542370283
 20
342.0636496102794
 30
0.0
 11
-135.4999542236329
 21
342.0636496102794
 31
0.0
  0
LINE
  5
E46
330
1F
100
AcDbEntity
  8
0
100
AcDbLine
 10
-182.2500112149336
 20
324.0636496102794
 30
0.0
 11
-166.8999542236329
 21
324.0636496102792
 31
0.0
  0
LINE
  5
E48
330
1F
100
AcDbEntity
  8
0
100
AcDbLine
 10
-155.9999542236328
 20
319.5636496102793
 30
0.0
 11
-150.0523223876954
 21
319.5636496102793
 31
0.0
  0
LINE
  5
E49
330
1F
100
AcDbEntity
  8
0
100
AcDbLine
 10
-149.5170677870867
 20
317.0463906933122
 30
0.0
 11
-149.552436054523
 21
319.0725408244136
 31
0.0
  0
LINE
  5
E4A
330
1F
100
AcDbEntity
  8
0
100
AcDbLine
 10
-97.99995422363281
 20
365.5636496102792
 30
0.0
 11
-97.99995422363281
 21
332.5636496102793
 31
0.0
  0
LINE
  5
E4B
330
1F
100
AcDbEntity
  8
0
100
AcDbLine
 10
-122.0097198486328
 20
369.0636496102792
 30
0.0
 11
-122.0097198486328
 21
342.0636496102792
 31
0.0
  0
LINE
  5
E4E
330
1F
100
AcDbEntity
  8
0
100
AcDbLine
 10
-131.9999542236328
 20
342.0636496102794
 30
0.0
 11
-111.9999542236329
 21
342.0636496102794
 31
0.0
  0
LINE
  5
E4F
330
1F
100
AcDbEntity
  8
0
100
AcDbLine
 10
-133.4999542236328
 20
317.0636496102792
 30
0.0
 11
-133.4999542236328
 21
324.4695238294269
 31
0.0
  0
LINE
  5
E50
330
1F
100
AcDbEntity
  8
0
100
AcDbLine
 10
-132.9999542236328
 20
320.0636496102793
 30
0.0
 11
-132.9999542236328
 21
341.0636496102792
 31
0.0
  0
LINE
  5
E53
330
1F
100
AcDbEntity
  8
0
100
AcDbLine
 10
-132.4999542236328
 20
319.5636496102793
 30
0.0
 11
-126.5523223876954
 21
319.5636496102793
 31
0.0
  0
LINE
  5
E55
330
1F
100
AcDbEntity
  8
0
100
AcDbLine
 10
-126.0170275441214
 20
317.0463862224561
 30
0.0
 11
-126.0524384220029
 21
319.0749773880062
 31
0.0
  0
LINE
  5
E59
330
1F
100
AcDbEntity
  8
0
100
AcDbLine
 10
-109.9999542236328
 20
317.0636496102792
 30
0.0
 11
-109.9999542236328
 21
340.0636496102793
 31
0.0
  0
LINE
  5
E5A
330
1F
100
AcDbEntity
  8
0
100
AcDbLine
 10
-109.9999542236329
 20
329.5636496102794
 30
0.0
 11
-85.89717102050792
 21
329.5636496102794
 31
0.0
  0
LINE
  5
E5B
330
1F
100
AcDbEntity
  8
0
100
AcDbLine
 10
-109.9999542236329
 20
332.5636496102793
 30
0.0
 11
-85.89717102050792
 21
332.5636496102793
 31
0.0
  0
LINE
  5
E5C
330
1F
100
AcDbEntity
  8
0
100
AcDbLine
 10
-99.60469055175781
 20
326.0636496102793
 30
0.0
 11
-108.9999542236328
 21
326.0636496102793
 31
0.0
  0
LINE
  5
E5D
330
1F
100
AcDbEntity
  8
0
100
AcDbLine
 10
-97.99995422363293
 20
336.0636496102793
 30
0.0
 11
-109.9999542236329
 21
336.0636496102793
 31
0.0
  0
LINE
  5
E5F
330
1F
100
AcDbEntity
  8
0
100
AcDbLine
 10
-54.49995422363281
 20
329.5636496102792
 30
0.0
 11
-54.49995422363281
 21
306.5636496102792
 31
0.0
  0
LINE
  5
E60
330
1F
100
AcDbEntity
  8
0
100
AcDbLine
 10
-51.49983215332031
 20
332.5636496102793
 30
0.0
 11
-51.49983215332031
 21
306.5636496102792
 31
0.0
  0
LINE
  5
E61
330
1F
100
AcDbEntity
  8
0
100
AcDbLine
 10
23.44841003417969
 20
338.1683859384042
 30
0.0
 11
23.44841003417969
 21
306.5636496102792
 31
0.0
  0
LINE
  5
E66
330
1F
100
AcDbEntity
  8
0
100
AcDbLine
 10
35.00004577636719
 20
310.0636496102792
 30
0.0
 11
35.00004577636719
 21
344.0636496102792
 31
0.0
  0
LINE
  5
E6E
330
1F
100
AcDbEntity
  8
0
100
AcDbLine
 10
23.44841003417969
 20
310.0636496102793
 30
0.0
 11
35.00004577636719
 21
310.0636496102793
 31
0.0
  0
LINE
  5
E73
330
1F
100
AcDbEntity
  8
0
100
AcDbLine
 10
-64.10273742675781
 20
332.5636496102793
 30
0.0
 11
-51.49983215332031
 21
332.5636496102793
 31
0.0
  0
LINE
  5
E74
330
1F
100
AcDbEntity
  8
0
100
AcDbLine
 10
-64.10273742675781
 20
329.5636496102794
 30
0.0
 11
-54.49995422363293
 21
329.5636496102794
 31
0.0
  0
LINE
  5
E7F
330
1F
100
AcDbEntity
  8
0
100
AcDbLine
 10
-10.99995422363281
 20
365.5636496102792
 30
0.0
 11
-10.99995422363281
 21
344.0636496102792
 31
0.0
  0
LINE
  5
E80
330
1F
100
AcDbEntity
  8
0
100
AcDbLine
 10
7.010055541992187
 20
368.5737814462167
 30
0.0
 11
7.010055541992187
 21
344.0636496102792
 31
0.0
  0
LINE
  5
E83
330
1F
100
AcDbEntity
  8
0
100
AcDbLine
 10
17.23112487792969
 20
344.0636496102792
 30
0.0
 11
35.00004577636719
 21
344.0636496102792
 31
0.0
  0
LINE
  5
E84
330
1F
100
AcDbEntity
  8
0
100
AcDbLine
 10
-10.99995422363281
 20
344.0636496102792
 30
0.0
 11
17.23112487792969
 21
344.0636496102792
 31
0.0
  0
LINE
  5
E8D
330
1F
100
AcDbEntity
  8
0
100
AcDbLine
 10
-6.509719848632812
 20
369.0636496102792
 30
0.0
 11
6.510055541992073
 21
369.0636496102792
 31
0.0
  0
LINE
  5
E8E
330
1F
100
AcDbEntity
  8
0
100
AcDbLine
 10
-11.50971984863281
 20
369.0636496102792
 30
0.0
 11
1.510055541992187
 21
369.0636496102792
 31
0.0
  0
LINE
  5
E90
330
1F
100
AcDbEntity
  8
0
100
AcDbLine
 10
-133.4999542236328
 20
337.6577753911318
 30
0.0
 11
-133.4999542236328
 21
340.0636496102793
 31
0.0
  0
LINE
  5
E95
330
1F
100
AcDbEntity
  8
0
100
AcDbLine
 10
-143.8999542236327
 20
325.0014717837883
 30
0.0
 11
-143.8999542236327
 21
337.1258274367702
 31
0.0
  0
LINE
  5
E96
330
1F
100
AcDbEntity
  8
0
100
AcDbLine
 10
-139.2999542236325
 20
322.9807458416248
 30
0.0
 11
-143.3999542236326
 21
322.9807458416248
 31
0.0
  0
LINE
  5
E97
330
1F
100
AcDbEntity
  8
0
100
AcDbLine
 10
-139.2999542236325
 20
327.022197725952
 30
0.0
 11
-143.3999542236326
 21
327.022197725952
 31
0.0
  0
LINE
  5
E98
330
1F
100
AcDbEntity
  8
0
100
AcDbLine
 10
-139.2999542236325
 20
335.1051014946069
 30
0.0
 11
-143.3999542236326
 21
335.1051014946069
 31
0.0
  0
LINE
  5
E99
330
1F
100
AcDbEntity
  8
0
100
AcDbLine
 10
-138.7999542236325
 20
324.303890552395
 30
0.0
 11
-138.7999542236325
 21
337.8234086681636
 31
0.0
  0
LINE
  5
E9A
330
1F
100
AcDbEntity
  8
0
100
AcDbLine
 10
-139.2999542236325
 20
339.1465533789342
 30
0.0
 11
-143.3999542236326
 21
339.1465533789342
 31
0.0
  0
LINE
  5
E9F
330
1F
100
AcDbEntity
  8
0
100
AcDbLine
 10
-160.2999542202699
 20
331.0635973158813
 30
0.0
 11
-160.2999542189555
 21
348.2636496102792
 31
0.0
  0
LINE
  5
EA0
330
1F
100
AcDbEntity
  8
0
100
AcDbLine
 10
-147.0999542533015
 20
336.0636488932093
 30
0.0
 11
-147.0999542267966
 21
348.2636496092705
 31
0.0
  0
LINE
  5
EA3
330
1F
100
AcDbEntity
  8
0
100
AcDbLine
 10
-143.8999542236327
 20
326.0636496102793
 30
0.0
 11
-155.2999542205424
 21
326.063649610279
 31
0.0
  0
LINE
  5
EA4
330
1F
100
AcDbEntity
  8
0
100
AcDbLine
 10
-132.9999542236331
 20
324.4851496102794
 30
0.0
 11
-138.8617077145736
 21
324.301960659363
 31
0.0
  0
LINE
  5
EA5
330
1F
100
AcDbEntity
  8
0
100
AcDbLine
 10
-132.999954223633
 20
337.6421496102803
 30
0.0
 11
-138.8617077145736
 21
337.8253385611966
 31
0.0
  0
LINE
  5
EA6
330
1F
100
AcDbEntity
  8
0
100
AcDbLine
 10
-143.8999542236333
 20
336.0636496102805
 30
0.0
 11
-147.0999542533019
 21
336.0636488932104
 31
0.0
  0
LINE
  5
EA7
330
1F
100
AcDbEntity
  8
0
100
AcDbLine
 10
-162.7999542236327
 20
338.0636496102794
 30
0.0
 11
-166.8999542236329
 21
338.0636496102794
 31
0.0
  0
LINE
  5
EAD
330
1F
100
AcDbEntity
  8
0
100
AcDbLine
 10
-156.4999542236335
 20
324.4851496102792
 30
0.0
 11
-162.7373686967341
 21
324.2902206669989
 31
0.0
  0
LINE
  5
EAE
330
1F
100
AcDbEntity
  8
0
100
AcDbLine
 10
-160.2999542205431
 20
337.7609055446591
 30
0.0
 11
-162.7373686967342
 21
337.8370785535602
 31
0.0
  0
LINE
  5
EB7
330
1F
100
AcDbEntity
  8
0
  6
Continuous
 62
     4
370
    20
100
AcDbLine
 10
91.76406763727754
 20
385.0636496102792
 30
0.0
 11
91.76406763727754
 21
382.5636496102793
 31
0.0
  0
ARC
  5
F0B
330
1F
100
AcDbEntity
  8
2
100
AcDbCircle
 10
0.0
 20
404.0636343514901
 30
0.0
 40
67.74999237060547
100
AcDbArc
 50
297.6734747826682
 51
301.1048108880109
  0
ARC
  5
F0C
330
1F
100
AcDbEntity
  8
2
100
AcDbCircle
 10
0.0
 20
404.0636343514901
 30
0.0
 40
67.74999237060547
100
AcDbArc
 50
356.6152675302651
 51
174.4398436864254
  0
ARC
  5
FFD
330
1F
100
AcDbEntity
  8
2
100
AcDbCircle
 10
0.0
 20
404.0636343514901
 30
0.0
 40
67.74999237060547
100
AcDbArc
 50
307.1508910544269
 51
341.4976843125515
  0
ARC
  5
FFF
330
1F
100
AcDbEntity
  8
0
100
AcDbCircle
 10
27.83459268664399
 20
355.5636496102792
 30
0.0
 40
2.5
100
AcDbArc
 50
269.9999974955182
 51
0.0
  0
ARC
  5
1000
330
1F
100
AcDbEntity
  8
0
100
AcDbCircle
 10
30.83459268664399
 20
382.0636496102793
 30
0.0
 40
0.5
100
AcDbArc
 50
90.0000025044752
 51
180.0000050089569
  0
CIRCLE
  5
1018
330
1F
100
AcDbEntity
  8
0
100
AcDbCircle
 10
100.0
 20
326.0636496102792
 30
0.0
 40
24.0
  0
ARC
  5
1023
330
1F
100
AcDbEntity
  8
0
100
AcDbCircle
 10
116.0
 20
308.0636496102792
 30
0.0
 40
4.0
100
AcDbArc
 50
270.0
 51
0.0
  0
ARC
  5
1024
330
1F
100
AcDbEntity
  8
0
100
AcDbCircle
 10
116.0
 20
308.0636496102792
 30
0.0
 40
4.0
100
AcDbArc
 50
270.0
 51
0.0
  0
ARC
  5
1025
330
1F
100
AcDbEntity
  8
0
100
AcDbCircle
 10
116.0
 20
344.0636496102792
 30
0.0
 40
4.0
100
AcDbArc
 50
0.0
 51
90.0
  0
ARC
  5
1026
330
1F
100
AcDbEntity
  8
0
100
AcDbCircle
 10
116.0
 20
344.0636496102792
 30
0.0
 40
4.0
100
AcDbArc
 50
0.0
 51
90.0
  0
ARC
  5
1028
330
1F
100
AcDbEntity
  8
0
100
AcDbCircle
 10
-115.0
 20
378.3851217782479
 30
0.0
 40
10.0
100
AcDbArc
 50
110.0000003288001
 51
180.0
  0
ARC
  5
1029
330
1F
100
AcDbEntity
  8
0
100
AcDbCircle
 10
-3.236724853515625
 20
419.0636343514901
 30
0.0
 40
10.0
100
AcDbArc
 50
89.99999749551827
 51
110.0000003288001
  0
ARC
  5
102B
330
1F
100
AcDbEntity
  8
0
100
AcDbCircle
 10
7.999999999999772
 20
377.2308249032479
 30
0.0
 40
3.0
100
AcDbArc
 50
106.6015509148018
 51
180.0
  0
ARC
  5
102C
330
1F
100
AcDbEntity
  8
0
100
AcDbCircle
 10
0.0
 20
404.0636343514901
 30
0.0
 40
25.0
100
AcDbArc
 50
286.6015490935691
 51
327.3163611537411
  0
ARC
  5
103C
330
1F
100
AcDbEntity
  8
0
100
AcDbCircle
 10
0.0
 20
404.0636343514901
 30
0.0
 40
25.0
100
AcDbArc
 50
333.8961188626607
 51
90.00000068324297
  0
CIRCLE
  5
1047
330
1F
100
AcDbEntity
  8
0
100
AcDbCircle
 10
-74.99995422363281
 20
331.0636496102793
 30
0.0
 40
11.0
  0
ARC
  5
1048
330
1F
100
AcDbEntity
  8
0
100
AcDbCircle
 10
-110.9999542236328
 20
317.0636496102793
 30
0.0
 40
1.0
100
AcDbArc
 50
270.0000179860857
 51
0.0
  0
ARC
  5
1049
330
1F
100
AcDbEntity
  8
0
100
AcDbCircle
 10
-125.0171661376953
 20
317.0636496102793
 30
0.0
 40
1.0
100
AcDbArc
 50
181.0000849496944
 51
270.0004004766793
  0
ARC
  5
104A
330
1F
100
AcDbEntity
  8
0
100
AcDbCircle
 10
-134.4999542236328
 20
317.0636496102793
 30
0.0
 40
1.0
100
AcDbArc
 50
270.0000179860857
 51
0.0
  0
ARC
  5
104B
330
1F
100
AcDbEntity
  8
0
100
AcDbCircle
 10
-148.5171661376953
 20
317.0636496102793
 30
0.0
 40
1.0
100
AcDbArc
 50
181.0000849496944
 51
270.0004004766793
  0
ARC
  5
104C
330
1F
100
AcDbEntity
  8
0
100
AcDbCircle
 10
-182.2500111712223
 20
295.0636496102793
 30
0.0
 40
1.0
100
AcDbArc
 50
180.000035972178
 51
270.0000179860857
  0
ARC
  5
104F
330
1F
100
AcDbEntity
  8
0
100
AcDbCircle
 10
-168.3061065673828
 20
292.0636496102793
 30
0.0
 40
2.0
100
AcDbArc
 50
8.130110772850224
 51
90.00003665542106
  0
ARC
  5
1050
330
1F
100
AcDbEntity
  8
0
100
AcDbCircle
 10
-161.7499542236328
 20
282.8136496102794
 30
0.0
 40
1.25
100
AcDbArc
 50
180.000035972178
 51
269.9999633445724
  0
ARC
  5
1051
330
1F
100
AcDbEntity
  8
0
100
AcDbCircle
 10
-161.749954223633
 20
303.8136496102793
 30
0.0
 40
1.25
100
AcDbArc
 50
90.00003665542106
 51
179.9999640278219
  0
ARC
  5
1055
330
1F
100
AcDbEntity
  8
0
100
AcDbCircle
 10
-138.2499542236328
 20
282.8136496102794
 30
0.0
 40
1.25
100
AcDbArc
 50
179.9999640278219
 51
269.9999733624863
  0
ARC
  5
105B
330
1F
100
AcDbEntity
  8
0
100
AcDbCircle
 10
-97.74995422363282
 20
282.8136496102794
 30
0.0
 40
1.25
100
AcDbArc
 50
270.0000179860857
 51
0.0000366554243227
  0
ARC
  5
105D
330
1F
100
AcDbEntity
  8
0
100
AcDbCircle
 10
-101.6345977783203
 20
275.3508810555917
 30
0.0
 40
0.5
100
AcDbArc
 50
300.7602393661023
 51
359.0000265814512
  0
ARC
  5
105E
330
1F
100
AcDbEntity
  8
0
100
AcDbCircle
 10
-97.74995422363282
 20
303.8136496102793
 30
0.0
 40
1.25
100
AcDbArc
 50
0.0000539582671123
 51
90.00003665542106
  0
ARC
  5
1060
330
1F
100
AcDbEntity
  8
0
100
AcDbCircle
 10
-182.2500111712222
 20
323.0636496102794
 30
0.0
 40
1.0
100
AcDbArc
 50
90.0000025044752
 51
180.0000323297136
  0
ARC
  5
1062
330
1F
100
AcDbEntity
  8
0
100
AcDbCircle
 10
-155.9999542236328
 20
320.0636496102793
 30
0.0
 40
0.5
100
AcDbArc
 50
179.9999640278219
 51
270.000000683243
  0
ARC
  5
1063
330
1F
100
AcDbEntity
  8
0
100
AcDbCircle
 10
-150.0523223876953
 20
319.0636496102793
 30
0.0
 40
0.5
100
AcDbArc
 50
1.000209273520297
 51
89.99998201390772
  0
ARC
  5
1066
330
1F
100
AcDbEntity
  8
0
100
AcDbCircle
 10
-132.4999542236328
 20
320.0636496102793
 30
0.0
 40
0.5
100
AcDbArc
 50
179.9999640278219
 51
270.000000683243
  0
ARC
  5
1067
330
1F
100
AcDbEntity
  8
0
100
AcDbCircle
 10
-126.5523223876953
 20
319.0636496102793
 30
0.0
 40
0.5
100
AcDbArc
 50
1.000036170910448
 51
89.99932631574736
  0
ARC
  5
106A
330
1F
100
AcDbEntity
  8
0
100
AcDbCircle
 10
-135.4999542236328
 20
340.0636496102794
 30
0.0
 40
2.0
100
AcDbArc
 50
0.0
 51
89.99998201390772
  0
ARC
  5
106B
330
1F
100
AcDbEntity
  8
0
100
AcDbCircle
 10
-131.9999542236328
 20
341.0636496102793
 30
0.0
 40
1.0
100
AcDbArc
 50
89.99998201390772
 51
179.9999640278219
  0
ARC
  5
106C
330
1F
100
AcDbEntity
  8
0
100
AcDbCircle
 10
-108.9999542236328
 20
325.0636496102793
 30
0.0
 40
1.0
100
AcDbArc
 50
89.99998201390772
 51
179.9999640278219
  0
ARC
  5
106D
330
1F
100
AcDbEntity
  8
0
100
AcDbCircle
 10
-99.66572570800781
 20
325.5636496102794
 30
0.0
 40
0.5
100
AcDbArc
 50
0.5000855335733325
 51
89.99998201390772
  0
ARC
  5
1070
330
1F
100
AcDbEntity
  8
0
100
AcDbCircle
 10
-92.99995422363281
 20
346.5636496102792
 30
0.0
 40
5.0
100
AcDbArc
 50
90.0000025044752
 51
180.0000050089569
  0
ARC
  5
1071
330
1F
100
AcDbEntity
  8
0
100
AcDbCircle
 10
-111.9999542236328
 20
340.0636496102794
 30
0.0
 40
2.0
100
AcDbArc
 50
0.0
 51
89.99998201390772
  0
ARC
  5
1078
330
1F
100
AcDbEntity
  8
0
100
AcDbCircle
 10
-13.70356750488281
 20
348.5636496102793
 30
0.0
 40
3.0
100
AcDbArc
 50
25.67893459038379
 51
90.0000025044752
  0
ARC
  5
107C
330
1F
100
AcDbEntity
  8
0
100
AcDbCircle
 10
17.44926452636718
 20
338.0636496102794
 30
0.0
 40
6.0
100
AcDbArc
 50
1.00006349166958
 51
89.99998201390772
  0
ARC
  5
1084
330
1F
100
AcDbEntity
  8
0
100
AcDbCircle
 10
6.510055541992187
 20
368.5636496102793
 30
0.0
 40
0.5
100
AcDbArc
 50
1.145753774541959
 51
89.99954488180733
  0
ARC
  5
1086
330
1F
100
AcDbEntity
  8
0
100
AcDbCircle
 10
-155.2999542205434
 20
331.063649610279
 30
0.0
 40
5.0
100
AcDbArc
 50
179.9999999999967
 51
270.0
  0
ARC
  5
1099
330
1F
100
AcDbEntity
  8
0
100
AcDbCircle
 10
30.35118699601844
 20
382.5636496618985
 30
0.0
 40
2.5
100
AcDbArc
 50
90.0000025044752
 51
180.0000050089569
  0
ARC
  5
109A
330
1F
100
AcDbEntity
  8
0
100
AcDbCircle
 10
27.35118699601844
 20
356.0636496102793
 30
0.0
 40
0.5
100
AcDbArc
 50
269.9999974955182
 51
0.0
  0
SPLINE
  5
10B0
330
1F
100
AcDbEntity
  8
0
100
AcDbSpline
210
0.0
220
0.0
230
1.0
 70
  1064
 71
     3
 72
     9
 73
     5
 74
     3
 42
0.000000001
 43
0.0000000001
 44
0.0000000001
 12
-0.4435327625727383
 22
0.8962581595302744
 32
0.0
 13
0.4435327625727376
 23
0.8962581595302749
 33
0.0
 40
0.0
 40
0.0
 40
0.0
 40
0.0
 40
2.081665999466053
 40
4.163331998932106
 40
4.163331998932106
 40
4.163331998932106
 40
4.163331998932106
 10
-143.3999542236326
 20
322.9807458416248
 30
0.0
 10
-143.7077165807983
 20
323.6026492207709
 30
0.0
 10
-144.092191866467
 20
325.0014717837883
 30
0.0
 10
-143.7077165807983
 20
326.4002943468059
 30
0.0
 10
-143.3999542236326
 20
327.022197725952
 30
0.0
 11
-143.3999542236326
 21
322.9807458416248
 31
0.0
 11
-143.8999542236327
 21
325.0014717837883
 31
0.0
 11
-143.3999542236326
 21
327.022197725952
 31
0.0
  0
SPLINE
  5
10B1
330
1F
100
AcDbEntity
  8
0
100
AcDbSpline
210
0.0
220
0.0
230
1.0
 70
  1064
 71
     3
 72
     9
 73
     5
 74
     3
 42
0.000000001
 43
0.0000000001
 44
0.0000000001
 12
0.2401922307076396
 22
0.9707253433941486
 32
0.0
 13
-0.2401922307076404
 23
0.9707253433941486
 33
0.0
 40
0.0
 40
0.0
 40
0.0
 40
0.0
 40
4.072263907623488
 40
8.144527815247203
 40
8.144527815247203
 40
8.144527815247203
 40
8.144527815247203
 10
-139.2999542236325
 20
327.022197725952
 30
0.0
 10
-138.9739121729651
 20
328.3398809859918
 30
0.0
 10
-138.6259962743
 20
331.0636496102795
 30
0.0
 10
-138.9739121729651
 20
333.787418234567
 30
0.0
 10
-139.2999542236325
 20
335.1051014946069
 30
0.0
 11
-139.2999542236325
 21
327.022197725952
 31
0.0
 11
-138.7999542236325
 21
331.0636496102793
 31
0.0
 11
-139.2999542236325
 21
335.1051014946069
 31
0.0
  0
SPLINE
  5
10B2
330
1F
100
AcDbEntity
  8
0
100
AcDbSpline
210
0.0
220
0.0
230
1.0
 70
  1064
 71
     3
 72
     9
 73
     5
 74
     3
 42
0.000000001
 43
0.0000000001
 44
0.0000000001
 12
0.4435327625727378
 22
0.8962581595302747
 32
0.0
 13
-0.4435327625727383
 23
0.8962581595302744
 33
0.0
 40
0.0
 40
0.0
 40
0.0
 40
0.0
 40
2.081665999466053
 40
4.163331998932106
 40
4.163331998932106
 40
4.163331998932106
 40
4.163331998932106
 10
-139.2999542236325
 20
322.9807458416248
 30
0.0
 10
-138.9921918664669
 20
323.6026492207709
 30
0.0
 10
-138.6077165807982
 20
325.0014717837883
 30
0.0
 10
-138.9921918664669
 20
326.4002943468059
 30
0.0
 10
-139.2999542236325
 20
327.022197725952
 30
0.0
 11
-139.2999542236325
 21
322.9807458416248
 31
0.0
 11
-138.7999542236325
 21
325.0014717837883
 31
0.0
 11
-139.2999542236325
 21
327.022197725952
 31
0.0
  0
SPLINE
  5
10B3
330
1F
100
AcDbEntity
  8
0
100
AcDbSpline
210
0.0
220
0.0
230
1.0
 70
  1064
 71
     3
 72
     9
 73
     5
 74
     3
 42
0.000000001
 43
0.0000000001
 44
0.0000000001
 12
-0.4435327625727378
 22
-0.8962581595302747
 32
0.0
 13
0.4435327625727383
 23
-0.8962581595302744
 33
0.0
 40
0.0
 40
0.0
 40
0.0
 40
0.0
 40
2.081665999465942
 40
4.163331998931885
 40
4.163331998931885
 40
4.163331998931885
 40
4.163331998931885
 10
-143.3999542236326
 20
339.1465533789337
 30
0.0
 10
-143.7077165807983
 20
338.5246499997877
 30
0.0
 10
-144.092191866467
 20
337.1258274367702
 30
0.0
 10
-143.7077165807983
 20
335.7270048737528
 30
0.0
 10
-143.3999542236326
 20
335.1051014946067
 30
0.0
 11
-143.3999542236326
 21
339.1465533789337
 31
0.0
 11
-143.8999542236327
 21
337.1258274367702
 31
0.0
 11
-143.3999542236326
 21
335.1051014946067
 31
0.0
  0
SPLINE
  5
10B4
330
1F
100
AcDbEntity
  8
0
100
AcDbSpline
210
0.0
220
0.0
230
1.0
 70
  1064
 71
     3
 72
     9
 73
     5
 74
     3
 42
0.000000001
 43
0.0000000001
 44
0.0000000001
 12
-0.2401922307076403
 22
0.9707253433941483
 32
0.0
 13
0.2401922307076396
 23
0.9707253433941486
 33
0.0
 40
0.0
 40
0.0
 40
0.0
 40
0.0
 40
4.072263907623488
 40
8.144527815247203
 40
8.144527815247203
 40
8.144527815247203
 40
8.144527815247203
 10
-143.3999542236326
 20
327.022197725952
 30
0.0
 10
-143.7259962743001
 20
328.3398809859918
 30
0.0
 10
-144.0739121729653
 20
331.0636496102795
 30
0.0
 10
-143.7259962743001
 20
333.787418234567
 30
0.0
 10
-143.3999542236326
 20
335.1051014946069
 30
0.0
 11
-143.3999542236326
 21
327.022197725952
 31
0.0
 11
-143.8999542236327
 21
331.0636496102793
 31
0.0
 11
-143.3999542236326
 21
335.1051014946069
 31
0.0
  0
SPLINE
  5
10B5
330
1F
100
AcDbEntity
  8
0
100
AcDbSpline
210
0.0
220
0.0
230
1.0
 70
  1064
 71
     3
 72
     9
 73
     5
 74
     3
 42
0.000000001
 43
0.0000000001
 44
0.0000000001
 12
0.4435327625727383
 22
-0.8962581595302744
 32
0.0
 13
-0.4435327625727376
 23
-0.8962581595302749
 33
0.0
 40
0.0
 40
0.0
 40
0.0
 40
0.0
 40
2.081665999465942
 40
4.163331998931885
 40
4.163331998931885
 40
4.163331998931885
 40
4.163331998931885
 10
-139.2999542236325
 20
339.1465533789337
 30
0.0
 10
-138.9921918664669
 20
338.5246499997877
 30
0.0
 10
-138.6077165807982
 20
337.1258274367702
 30
0.0
 10
-138.9921918664669
 20
335.7270048737528
 30
0.0
 10
-139.2999542236325
 20
335.1051014946067
 30
0.0
 11
-139.2999542236325
 21
339.1465533789337
 31
0.0
 11
-138.7999542236325
 21
337.1258274367702
 31
0.0
 11
-139.2999542236325
 21
335.1051014946067
 31
0.0
  0
SPLINE
  5
10B6
330
1F
100
AcDbEntity
  8
0
100
AcDbSpline
210
0.0
220
0.0
230
1.0
 70
  1064
 71
     3
 72
     9
 73
     5
 74
     3
 42
0.000000001
 43
0.0000000001
 44
0.0000000001
 12
-0.274721127897355
 22
-0.9615239476408298
 32
0.0
 13
0.2747211278973558
 23
-0.9615239476408296
 33
0.0
 40
0.0
 40
0.0
 40
0.0
 40
0.0
 40
3.535533905932737
 40
7.071067811865587
 40
7.071067811865587
 40
7.071067811865587
 40
7.071067811865587
 10
-166.8999542236329
 20
338.0636496102794
 30
0.0
 10
-167.2237161777519
 20
336.9304827708626
 30
0.0
 10
-167.5761922695138
 20
334.5636496102794
 30
0.0
 10
-167.223716177752
 20
332.1968164496961
 30
0.0
 10
-166.8999542236329
 20
331.0636496102793
 30
0.0
 11
-166.8999542236329
 21
338.0636496102794
 31
0.0
 11
-167.3999542236329
 21
334.5636496102794
 31
0.0
 11
-166.8999542236329
 21
331.0636496102793
 31
0.0
  0
SPLINE
  5
10B7
330
1F
100
AcDbEntity
  8
0
100
AcDbSpline
210
0.0
220
0.0
230
1.0
 70
  1064
 71
     3
 72
     9
 73
     5
 74
     3
 42
0.000000001
 43
0.0000000001
 44
0.0000000001
 12
0.2747211278973558
 22
-0.9615239476408296
 32
0.0
 13
-0.274721127897355
 23
-0.9615239476408298
 33
0.0
 40
0.0
 40
0.0
 40
0.0
 40
0.0
 40
3.535533905932737
 40
7.071067811865587
 40
7.071067811865587
 40
7.071067811865587
 40
7.071067811865587
 10
-162.7999542236327
 20
338.0636496102794
 30
0.0
 10
-162.4761922695137
 20
336.9304827708626
 30
0.0
 10
-162.1237161777518
 20
334.5636496102793
 30
0.0
 10
-162.4761922695137
 20
332.1968164496961
 30
0.0
 10
-162.7999542236327
 20
331.0636496102793
 30
0.0
 11
-162.7999542236327
 21
338.0636496102794
 31
0.0
 11
-162.2999542236327
 21
334.5636496102794
 31
0.0
 11
-162.7999542236327
 21
331.0636496102793
 31
0.0
  0
SPLINE
  5
10B8
330
1F
100
AcDbEntity
  8
0
100
AcDbSpline
210
0.0
220
0.0
230
1.0
 70
  1064
 71
     3
 72
     9
 73
     5
 74
     3
 42
0.000000001
 43
0.0000000001
 44
0.0000000001
 12
-0.2747211278973558
 22
0.9615239476408296
 32
0.0
 13
0.274721127897355
 23
0.9615239476408298
 33
0.0
 40
0.0
 40
0.0
 40
0.0
 40
0.0
 40
3.535533905932737
 40
7.071067811865587
 40
7.071067811865587
 40
7.071067811865587
 40
7.071067811865587
 10
-166.8999542236329
 20
324.0636496102792
 30
0.0
 10
-167.2237161777519
 20
325.196816449696
 30
0.0
 10
-167.5761922695138
 20
327.5636496102792
 30
0.0
 10
-167.223716177752
 20
329.9304827708624
 30
0.0
 10
-166.8999542236329
 20
331.0636496102793
 30
0.0
 11
-166.8999542236329
 21
324.0636496102792
 31
0.0
 11
-167.3999542236329
 21
327.5636496102792
 31
0.0
 11
-166.8999542236329
 21
331.0636496102793
 31
0.0
  0
SPLINE
  5
10B9
330
1F
100
AcDbEntity
  8
0
100
AcDbSpline
210
0.0
220
0.0
230
1.0
 70
  1064
 71
     3
 72
     9
 73
     5
 74
     3
 42
0.000000001
 43
0.0000000001
 44
0.0000000001
 12
0.274721127897355
 22
0.9615239476408298
 32
0.0
 13
-0.2747211278973558
 23
0.9615239476408296
 33
0.0
 40
0.0
 40
0.0
 40
0.0
 40
0.0
 40
3.535533905932737
 40
7.071067811865587
 40
7.071067811865587
 40
7.071067811865587
 40
7.071067811865587
 10
-162.7999542236327
 20
324.0636496102792
 30
0.0
 10
-162.4761922695137
 20
325.196816449696
 30
0.0
 10
-162.1237161777518
 20
327.5636496102792
 30
0.0
 10
-162.4761922695137
 20
329.9304827708624
 30
0.0
 10
-162.7999542236327
 20
331.0636496102793
 30
0.0
 11
-162.7999542236327
 21
324.0636496102792
 31
0.0
 11
-162.2999542236327
 21
327.5636496102792
 31
0.0
 11
-162.7999542236327
 21
331.0636496102793
 31
0.0
  0
LINE
  5
11BF
330
1F
100
AcDbEntity
  8
0
100
AcDbLine
 10
79.74998882877781
 20
111.4191211595423
 30
0.0
 11
73.88823533783744
 21
111.6023101104588
 31
0.0
  0
LINE
  5
11C0
330
1F
100
AcDbEntity
  8
0
100
AcDbLine
 10
68.84998882877795
 20
110.9027989860332
 30
0.0
 11
68.84998882877795
 21
98.77844333305132
 31
0.0
  0
LINE
  5
11C1
330
1F
100
AcDbEntity
  8
0
100
AcDbLine
 10
73.44998882877809
 20
112.9235249281968
 30
0.0
 11
69.34998882877806
 21
112.9235249281968
 31
0.0
  0
LINE
  5
11C2
330
1F
100
AcDbEntity
  8
0
100
AcDbLine
 10
73.44998882877809
 20
108.8820730438696
 30
0.0
 11
69.34998882877806
 21
108.8820730438696
 31
0.0
  0
LINE
  5
11C3
330
1F
100
AcDbEntity
  8
0
100
AcDbLine
 10
73.44998882877809
 20
100.7991692752147
 30
0.0
 11
69.34998882877806
 21
100.7991692752147
 31
0.0
  0
LINE
  5
11C4
330
1F
100
AcDbEntity
  8
0
100
AcDbLine
 10
73.94998882877809
 20
111.6003802174264
 30
0.0
 11
73.94998882877809
 21
98.08086210165789
 31
0.0
  0
LINE
  5
11C5
330
1F
100
AcDbEntity
  8
0
100
AcDbLine
 10
-162.5509501117774
 20
95.703009529111
 30
0.0
 11
-162.5509501117774
 21
92.38115201865014
 31
0.0
  0
LINE
  5
11C6
330
1F
100
AcDbEntity
  8
0
100
AcDbLine
 10
-163.0509501117774
 20
95.09945919220696
 30
0.0
 11
-167.1509501117778
 21
95.09945919220696
 31
0.0
  0
LINE
  5
11C7
330
1F
100
AcDbEntity
  8
0
100
AcDbLine
 10
-163.1528739821618
 20
103.1823629608618
 30
0.0
 11
-167.1509501117778
 21
103.1823629608618
 31
0.0
  0
LINE
  5
11C8
330
1F
100
AcDbEntity
  8
0
100
AcDbLine
 10
-139.5509501117774
 20
145.1409110765347
 30
0.0
 11
-143.6509501117778
 21
145.1409110765347
 31
0.0
  0
LINE
  5
11C9
330
1F
100
AcDbEntity
  8
0
100
AcDbLine
 10
-137.9005879122849
 20
131.4171026339107
 30
0.0
 11
-139.4883645848788
 21
131.3674821332548
 31
0.0
  0
LINE
  5
11CA
330
1F
100
AcDbEntity
  8
0
100
AcDbLine
 10
-139.2153577240192
 20
144.9058081290578
 30
0.0
 11
-139.4883645848793
 21
144.9143400198156
 31
0.0
  0
LINE
  5
11CB
330
1F
100
AcDbEntity
  8
0
100
AcDbLine
 10
-163.0509501117774
 20
107.223814845189
 30
0.0
 11
-167.1509501117778
 21
107.223814845189
 31
0.0
  0
LINE
  5
11CC
330
1F
100
AcDbEntity
  8
0
100
AcDbLine
 10
-167.6509501117776
 20
105.2030889030254
 30
0.0
 11
-167.6509501117776
 21
93.07873325004356
 31
0.0
  0
LINE
  5
11CD
330
1F
100
AcDbEntity
  8
0
100
AcDbLine
 10
-170.8509501148673
 20
81.94091107191741
 30
0.0
 11
-184.0509501086885
 21
81.94091107653457
 31
0.0
  0
LINE
  5
11CE
330
1F
100
AcDbEntity
  8
0
100
AcDbLine
 10
-144.1509501117776
 20
134.6409110765345
 30
0.0
 11
-144.1509501117776
 21
141.6409110765345
 31
0.0
  0
LINE
  5
11CF
330
1F
100
AcDbEntity
  8
0
100
AcDbLine
 10
-139.5509501117774
 20
131.1409110765345
 30
0.0
 11
-143.6509501117778
 21
131.1409110765345
 31
0.0
  0
LINE
  5
11D0
330
1F
100
AcDbEntity
  8
0
100
AcDbLine
 10
-139.6567857998298
 20
138.1409110765346
 30
0.0
 11
-143.6509501117778
 21
138.1409110765346
 31
0.0
  0
LINE
  5
11D1
330
1F
100
AcDbEntity
  8
0
100
AcDbLine
 10
-161.4005812308872
 20
92.41710284271414
 30
0.0
 11
-162.6127036027192
 21
92.37922212561796
 31
0.0
  0
LINE
  5
11D2
330
1F
100
AcDbEntity
  8
0
100
AcDbLine
 10
-167.6509501117778
 20
104.1409110765345
 30
0.0
 11
-179.0509501086885
 21
104.1409110765345
 31
0.0
  0
LINE
  5
11D3
330
1F
100
AcDbEntity
  8
0
100
AcDbLine
 10
73.44998882877809
 20
96.75771739088748
 30
0.0
 11
69.34998882877806
 21
96.75771739088748
 31
0.0
  0
LINE
  5
11D4
330
1F
100
AcDbEntity
  8
0
100
AcDbLine
 10
36.74995831119981
 20
34.14074322985471
 30
0.0
 11
36.74995831119981
 21
131.1407432298548
 31
0.0
  0
LINE
  5
11D5
330
1F
100
AcDbEntity
  8
0
100
AcDbLine
 10
37.74995831119969
 20
132.1407432298547
 30
0.0
 11
123.7499888287779
 21
132.1407432298547
 31
0.0
  0
LINE
  5
11D6
330
1F
100
AcDbEntity
  8
0
100
AcDbLine
 10
79.74998882877781
 20
17.24062115954211
 30
0.0
 11
119.7499888287779
 21
17.24062115954211
 31
0.0
  0
LINE
  5
11D7
330
1F
100
AcDbEntity
  8
0
100
AcDbLine
 10
79.74998882877793
 20
132.1407432298547
 30
0.0
 11
79.74998882877781
 21
17.24062115954211
 31
0.0
  0
LINE
  5
11D8
330
1F
100
AcDbEntity
  8
0
100
AcDbLine
 10
79.74998882877793
 20
172.2406211595422
 30
0.0
 11
119.7499888287779
 21
172.2406211595422
 31
0.0
  0
LINE
  5
11D9
330
1F
100
AcDbEntity
  8
0
100
AcDbLine
 10
119.7499888287779
 20
17.24062115954211
 30
0.0
 11
119.7499888287779
 21
132.1407432298547
 31
0.0
  0
LINE
  5
11DA
330
1F
100
AcDbEntity
  8
0
100
AcDbLine
 10
34.74998882877793
 20
34.14074322985482
 30
0.0
 11
36.74995831119969
 21
34.14074322985482
 31
0.0
  0
LINE
  5
11DB
330
1F
100
AcDbEntity
  8
0
100
AcDbLine
 10
37.74998882877782
 20
134.1406211595422
 30
0.0
 11
123.7499888287779
 21
134.1406211595422
 31
0.0
  0
LINE
  5
11DC
330
1F
100
AcDbEntity
  8
0
100
AcDbLine
 10
34.74998882877793
 20
34.14074322985471
 30
0.0
 11
34.74998882877793
 21
131.1406211595422
 31
0.0
  0
LINE
  5
11DD
330
1F
100
AcDbEntity
  8
0
100
AcDbLine
 10
34.74998882877793
 20
103.1406669359095
 30
0.0
 11
24.55003765690281
 21
103.1406669359095
 31
0.0
  0
LINE
  5
11DE
330
1F
100
AcDbEntity
  8
0
100
AcDbLine
 10
-64.25001117122218
 20
148.1409110765344
 30
0.0
 11
-64.25001117122207
 21
135.9406852464564
 31
0.0
  0
LINE
  5
11DF
330
1F
100
AcDbEntity
  8
0
100
AcDbLine
 10
24.55003765690281
 20
53.14066693590951
 30
0.0
 11
34.74998882877793
 21
53.14066693590951
 31
0.0
  0
LINE
  5
11E0
330
1F
100
AcDbEntity
  8
0
100
AcDbLine
 10
34.74998882877793
 20
35.14066693590951
 30
0.0
 11
24.55003765690281
 21
35.14066693590951
 31
0.0
  0
LINE
  5
11E1
330
1F
100
AcDbEntity
  8
0
100
AcDbLine
 10
24.55003765690281
 20
75.14080426501084
 30
0.0
 11
24.55003765690281
 21
20.34113690661263
 31
0.0
  0
LINE
  5
11E2
330
1F
100
AcDbEntity
  8
0
100
AcDbLine
 10
24.55003765690281
 20
75.14080426501084
 30
0.0
 11
24.55003765690281
 21
129.9406852464563
 31
0.0
  0
LINE
  5
11E3
330
1F
100
AcDbEntity
  8
0
100
AcDbLine
 10
-86.25001117122208
 20
149.1409110765345
 30
0.0
 11
-86.25001117122208
 21
136.4325370530968
 31
0.0
  0
LINE
  5
11E5
330
1F
100
AcDbEntity
  8
0
100
AcDbLine
 10
-103.8175259855422
 20
124.2049965635511
 30
0.0
 11
-99.80256016627841
 21
122.7436684614152
 31
0.0
  0
LINE
  5
11E6
330
1F
100
AcDbEntity
  8
0
100
AcDbLine
 10
-100.0500599993472
 20
95.33092877672983
 30
0.0
 11
-121.0498158587223
 21
95.33092877672983
 31
0.0
  0
LINE
  5
11E7
330
1F
100
AcDbEntity
  8
0
100
AcDbLine
 10
-100.0500599993472
 20
106.9509238939173
 30
0.0
 11
-121.0498158587223
 21
106.9509238939173
 31
0.0
  0
LINE
  5
11E8
330
1F
100
AcDbEntity
  8
0
100
AcDbLine
 10
-100.750011171222
 20
36.04078290270627
 30
0.0
 11
-100.750011171222
 21
54.24108502672971
 31
0.0
  0
LINE
  5
11E9
330
1F
100
AcDbEntity
  8
0
100
AcDbLine
 10
-100.2500111712222
 20
30.14094159411252
 30
0.0
 11
-103.0164906634096
 21
30.14094159411252
 31
0.0
  0
LINE
  5
11EA
330
1F
100
AcDbEntity
  8
0
100
AcDbLine
 10
-100.2500111712222
 20
15.14094159411263
 30
0.0
 11
-89.04542132747218
 21
15.14094159411263
 31
0.0
  0
LINE
  5
11EB
330
1F
100
AcDbEntity
  8
0
100
AcDbLine
 10
-113.2500111712221
 20
15.64091107653451
 30
0.0
 11
-113.2500111712221
 21
17.95521161364365
 31
0.0
  0
LINE
  5
11EC
330
1F
100
AcDbEntity
  8
0
100
AcDbLine
 10
-130.2500111712222
 20
1.140911076534393
 30
0.0
 11
-130.2500111712222
 21
10.17933270739365
 31
0.0
  0
LINE
  5
11ED
330
1F
100
AcDbEntity
  8
0
100
AcDbLine
 10
-112.7500111712222
 20
15.14094159411263
 30
0.0
 11
-100.2500111712222
 21
15.14094159411263
 31
0.0
  0
LINE
  5
11EE
330
1F
100
AcDbEntity
  8
0
100
AcDbLine
 10
-100.050059999347
 20
75.14080426501084
 30
0.0
 11
-100.050059999347
 21
30.34113690661252
 31
0.0
  0
LINE
  5
11EF
330
1F
100
AcDbEntity
  8
0
100
AcDbLine
 10
-183.2500111712221
 20
60.14094159411263
 30
0.0
 11
-164.3997914446598
 21
60.14094159411263
 31
0.0
  0
LINE
  5
11F0
330
1F
100
AcDbEntity
  8
0
100
AcDbLine
 10
-183.2500111712221
 20
25.14094159411263
 30
0.0
 11
-162.2500111712223
 21
25.14094159411263
 31
0.0
  0
LINE
  5
11F1
330
1F
100
AcDbEntity
  8
0
100
AcDbLine
 10
-160.2500111712223
 20
1.140911076534393
 30
0.0
 11
-160.2500111712223
 21
24.39695355700314
 31
0.0
  0
LINE
  5
11F2
330
1F
100
AcDbEntity
  8
0
100
AcDbLine
 10
-159.2500111712223
 20
0.1409415941126326
 30
0.0
 11
-131.2500111712221
 21
0.1409415941126326
 31
0.0
  0
LINE
  5
11F3
330
1F
100
AcDbEntity
  8
0
100
AcDbLine
 10
-100.050059999347
 20
75.14080426501084
 30
0.0
 11
-100.050059999347
 21
119.9406852464562
 31
0.0
  0
LINE
  5
11F4
330
1F
100
AcDbEntity
  8
0
100
AcDbLine
 10
-84.05005999934719
 20
14.34113690661263
 30
0.0
 11
18.55003765690281
 21
14.34113690661263
 31
0.0
  0
LINE
  5
11F5
330
1F
100
AcDbEntity
  8
0
100
AcDbLine
 10
-84.05005999934719
 20
135.9406852464564
 30
0.0
 11
18.55003765690281
 21
135.9406852464564
 31
0.0
  0
LINE
  5
11F6
330
1F
100
AcDbEntity
  8
0
100
AcDbLine
 10
-98.72438698145543
 20
149.1409110765345
 30
0.0
 11
-65.25001117122207
 21
149.1409110765345
 31
0.0
  0
LINE
  5
11F7
330
1F
100
AcDbEntity
  8
0
100
AcDbLine
 10
-25.25001117122219
 20
5.500000000000113
 30
0.0
 11
24.74998882877793
 21
5.500000000000099
 31
0.0
  0
LINE
  5
11F8
330
1F
100
AcDbEntity
  8
0
100
AcDbLine
 10
-25.25001117122219
 20
11.50000000000011
 30
0.0
 11
24.74998882877793
 21
11.49999891171421
 31
0.0
  0
LINE
  5
11F9
330
1F
100
AcDbEntity
  8
0
100
AcDbLine
 10
-25.25001116483458
 20
5.500000538073891
 30
0.0
 11
-24.75001062548273
 21
4.999999998722046
 31
0.0
  0
LINE
  5
11FA
330
1F
100
AcDbEntity
  8
0
100
AcDbLine
 10
-24.75001062548262
 20
11.99999945745367
 30
0.0
 11
-25.25001049048473
 21
11.49999959245156
 31
0.0
  0
LINE
  5
11FB
330
1F
100
AcDbEntity
  8
0
100
AcDbLine
 10
-25.25001117122207
 20
11.5
 30
0.0
 11
-25.25001117122207
 21
5.500000000000113
 31
0.0
  0
LINE
  5
11FC
330
1F
100
AcDbEntity
  8
0
100
AcDbLine
 10
-125.250011171222
 20
12.35279587039099
 30
0.0
 11
-125.250011171222
 21
12.00000000000011
 31
0.0
  0
LINE
  5
11FD
330
1F
100
AcDbEntity
  8
0
100
AcDbLine
 10
21.84998873341038
 20
15.33011676170622
 30
0.0
 11
21.84998873341038
 21
15.0
 31
0.0
  0
LINE
  5
11FE
330
1F
100
AcDbEntity
  8
0
100
AcDbLine
 10
21.28358051276251
 20
15.00000000000011
 30
0.0
 11
24.74998882877781
 21
15.00000000000011
 31
0.0
  0
LINE
  5
11FF
330
1F
100
AcDbEntity
  8
0
100
AcDbLine
 10
24.74998882877781
 20
12.0
 30
0.0
 11
-125.2500111712222
 21
12.0
 31
0.0
  0
LINE
  5
1200
330
1F
100
AcDbEntity
  8
0
100
AcDbLine
 10
24.74998882877781
 20
15.0
 30
0.0
 11
24.74998882877781
 21
12.0
 31
0.0
  0
LINE
  5
1201
330
1F
100
AcDbEntity
  8
0
100
AcDbLine
 10
24.24998828303859
 20
4.999999998722046
 30
0.0
 11
-24.75001062548273
 21
4.999999998722046
 31
0.0
  0
LINE
  5
1202
330
1F
100
AcDbEntity
  8
2
100
AcDbLine
 10
-25.24999209773586
 20
0.0
 30
0.0
 11
-25.24999209773586
 21
4.000015258789062
 31
0.0
  0
LINE
  5
1203
330
1F
100
AcDbEntity
  8
2
100
AcDbLine
 10
24.75000790226414
 20
0.0
 30
0.0
 11
24.75000790226414
 21
4.000015258789062
 31
0.0
  0
LINE
  5
1204
330
1F
100
AcDbEntity
  8
0
100
AcDbLine
 10
79.74998882877793
 20
98.26212115954229
 30
0.0
 11
73.8882353378371
 21
98.07893220862593
 31
0.0
  0
LINE
  5
1205
330
1F
100
AcDbEntity
  8
0
100
AcDbLine
 10
-170.8509501414467
 20
94.14091179360481
 30
0.0
 11
-170.8509501148672
 21
81.94091107653457
 31
0.0
  0
LINE
  5
1206
330
1F
100
AcDbEntity
  8
0
100
AcDbLine
 10
-163.0509501117774
 20
91.05800730787974
 30
0.0
 11
-167.1509501117778
 21
91.05800730787974
 31
0.0
  0
LINE
  5
1207
330
1F
100
AcDbEntity
  8
0
100
AcDbLine
 10
-184.0509501086885
 20
99.14091107653455
 30
0.0
 11
-184.0509501086885
 21
81.94091107653457
 31
0.0
  0
LINE
  5
1208
330
1F
100
AcDbEntity
  8
0
100
AcDbLine
 10
-167.650950111778
 20
94.14091107653552
 30
0.0
 11
-170.8509501414472
 21
94.14091179360571
 31
0.0
  0
LINE
  5
1209
330
1F
100
AcDbEntity
  8
0
100
AcDbLine
 10
34.74998882877793
 20
85.1406974534874
 30
0.0
 11
24.55003765690281
 21
85.1406974534874
 31
0.0
  0
ARC
  5
120A
330
1F
100
AcDbEntity
  8
0
100
AcDbCircle
 10
-153.9509501117773
 20
138.1409110765346
 30
0.0
 40
6.599999999999996
100
AcDbArc
 50
90.0
 51
270.0
  0
ARC
  5
120B
330
1F
100
AcDbEntity
  8
0
100
AcDbCircle
 10
37.74998882877782
 20
131.1406211595422
 30
0.0
 40
3.0
100
AcDbArc
 50
90.0
 51
180.0
  0
ARC
  5
120C
330
1F
100
AcDbEntity
  8
0
100
AcDbCircle
 10
37.74995831119969
 20
131.1407432298547
 30
0.0
 40
1.0
100
AcDbArc
 50
90.0
 51
180.0
  0
ARC
  5
120D
330
1F
100
AcDbEntity
  8
0
100
AcDbCircle
 10
18.55003765690292
 20
129.9406852464563
 30
0.0
 40
6.0
100
AcDbArc
 50
0.0000100179106335
 51
89.99998201390118
  0
ARC
  5
120E
330
1F
100
AcDbEntity
  8
0
100
AcDbCircle
 10
-65.25001117122219
 20
148.1409110765345
 30
0.0
 40
1.0
100
AcDbArc
 50
0.0
 51
89.99998201390118
  0
ARC
  5
120F
330
1F
100
AcDbEntity
  8
0
100
AcDbCircle
 10
18.55003765690292
 20
20.34113690661263
 30
0.0
 40
6.0
100
AcDbArc
 50
270.0000179860857
 51
0.0
  0
ARC
  5
1211
330
1F
100
AcDbEntity
  8
0
100
AcDbCircle
 10
-88.25001117122207
 20
136.4325370530968
 30
0.0
 40
2.0
100
AcDbArc
 50
340.7385916254494
 51
0.0000100179106335
  0
ARC
  5
1212
330
1F
100
AcDbEntity
  8
0
100
AcDbCircle
 10
-84.05005999934706
 20
119.9406852464562
 30
0.0
 40
16.0
100
AcDbArc
 50
89.99998201390118
 51
179.9999640278219
  0
ARC
  5
1213
330
1F
100
AcDbEntity
  8
0
100
AcDbCircle
 10
-118.250011171222
 20
140.1409110765345
 30
0.0
 40
21.5
100
AcDbArc
 50
342.9632662003943
 51
342.6976108878977
  0
ARC
  5
1214
330
1F
100
AcDbEntity
  8
0
100
AcDbCircle
 10
-84.05005999934706
 20
30.34113690661263
 30
0.0
 40
16.0
100
AcDbArc
 50
180.000035972178
 51
270.0000179860857
  0
ARC
  5
1215
330
1F
100
AcDbEntity
  8
0
100
AcDbCircle
 10
-112.750011171222
 20
15.64091107653439
 30
0.0
 40
0.5
100
AcDbArc
 50
179.9999640278219
 51
270.000000683243
  0
ARC
  5
1216
330
1F
100
AcDbEntity
  8
0
100
AcDbCircle
 10
-128.750011171222
 20
10.17933270739388
 30
0.0
 40
1.5
100
AcDbArc
 50
97.33440306920702
 51
180.0002918769021
  0
ARC
  5
1217
330
1F
100
AcDbEntity
  8
0
100
AcDbCircle
 10
-131.2500111712222
 20
1.140911076534507
 30
0.0
 40
1.0
100
AcDbArc
 50
270.0000179860857
 51
0.0
  0
ARC
  5
1218
330
1F
100
AcDbEntity
  8
0
100
AcDbCircle
 10
-164.3997914446595
 20
61.64092633532357
 30
0.0
 40
1.5
100
AcDbArc
 50
269.9999633445724
 51
332.0899038625063
  0
ARC
  5
1219
330
1F
100
AcDbEntity
  8
0
100
AcDbCircle
 10
-161.750011171222
 20
24.39695355700326
 30
0.0
 40
1.5
100
AcDbArc
 50
0.0000859661057541
 51
36.04939351477597
  0
ARC
  5
121A
330
1F
100
AcDbEntity
  8
0
100
AcDbCircle
 10
-162.2500111712223
 20
23.14091107653451
 30
0.0
 40
2.0
100
AcDbArc
 50
0.0
 51
89.99998201390118
  0
ARC
  5
121B
330
1F
100
AcDbEntity
  8
0
100
AcDbCircle
 10
-159.2500111712221
 20
1.140911076534507
 30
0.0
 40
1.0
100
AcDbArc
 50
179.9999640278219
 51
270.000000683243
  0
ARC
  5
121C
330
1F
100
AcDbEntity
  8
0
100
AcDbCircle
 10
-133.2500112092149
 20
45.14093092921001
 30
0.0
 40
33.75000291220455
100
AcDbArc
 50
15.6424893337497
 51
344.3575115696573
  0
CIRCLE
  5
121D
330
1F
100
AcDbEntity
  8
0
100
AcDbCircle
 10
-141.7500111712223
 20
101.1409263353235
 30
0.0
 40
21.5
  0
ARC
  5
121E
330
1F
100
AcDbEntity
  8
2
100
AcDbCircle
 10
-24.24998828303848
 20
4.000015258789176
 30
0.0
 40
1.0
100
AcDbArc
 50
90.0
 51
180.0000025044784
  0
SPLINE
  5
121F
330
1F
100
AcDbEntity
  8
0
100
AcDbSpline
210
0.0
220
0.0
230
1.0
 70
  1064
 71
     3
 72
     9
 73
     5
 74
     3
 42
0.000000001
 43
0.0000000001
 44
0.0000000001
 12
0.4435327625727378
 22
0.8962581595302747
 32
0.0
 13
-0.4435327625727383
 23
0.8962581595302744
 33
0.0
 40
0.0
 40
0.0
 40
0.0
 40
0.0
 40
2.081665999466163
 40
4.163331998932106
 40
4.163331998932106
 40
4.163331998932106
 40
4.163331998932106
 10
73.44998882877809
 20
96.75771739088771
 30
0.0
 10
73.75775118594375
 20
97.37962077003381
 30
0.0
 10
74.14222647161245
 20
98.77844333305137
 30
0.0
 10
73.75775118594372
 20
100.1772658960689
 30
0.0
 10
73.44998882877809
 20
100.7991692752149
 30
0.0
 11
73.44998882877809
 21
96.75771739088771
 31
0.0
 11
73.94998882877809
 21
98.77844333305143
 31
0.0
 11
73.44998882877809
 21
100.7991692752149
 31
0.0
  0
SPLINE
  5
1220
330
1F
100
AcDbEntity
  8
0
100
AcDbSpline
210
0.0
220
0.0
230
1.0
 70
  1064
 71
     3
 72
     9
 73
     5
 74
     3
 42
0.000000001
 43
0.0000000001
 44
0.0000000001
 12
-0.2401922307076396
 22
-0.9707253433941486
 32
0.0
 13
0.2401922307076404
 23
-0.9707253433941486
 33
0.0
 40
0.0
 40
0.0
 40
0.0
 40
0.0
 40
4.072263907623502
 40
8.144527815247231
 40
8.144527815247231
 40
8.144527815247231
 40
8.144527815247231
 10
69.34998882877806
 20
108.8820730438696
 30
0.0
 10
69.02394677811063
 20
107.5643897838297
 30
0.0
 10
68.67603087944532
 20
104.8406211595422
 30
0.0
 10
69.02394677811061
 20
102.1168525352545
 30
0.0
 10
69.34998882877806
 20
100.7991692752147
 30
0.0
 11
69.34998882877806
 21
108.8820730438696
 31
0.0
 11
68.84998882877795
 21
104.8406211595422
 31
0.0
 11
69.34998882877806
 21
100.7991692752147
 31
0.0
  0
SPLINE
  5
1221
330
1F
100
AcDbEntity
  8
0
100
AcDbSpline
210
0.0
220
0.0
230
1.0
 70
  1064
 71
     3
 72
     9
 73
     5
 74
     3
 42
0.000000001
 43
0.0000000001
 44
0.0000000001
 12
-0.4435327625727383
 22
0.8962581595302744
 32
0.0
 13
0.4435327625727376
 23
0.8962581595302749
 33
0.0
 40
0.0
 40
0.0
 40
0.0
 40
0.0
 40
2.08166599946619
 40
4.163331998932161
 40
4.163331998932161
 40
4.163331998932161
 40
4.163331998932161
 10
69.34998882877806
 20
96.75771739088771
 30
0.0
 10
69.0422264716124
 20
97.37962077003381
 30
0.0
 10
68.65775118594348
 20
98.77844333305137
 30
0.0
 10
69.04222647161244
 20
100.1772658960689
 30
0.0
 10
69.34998882877806
 20
100.7991692752149
 30
0.0
 11
69.34998882877806
 21
96.75771739088771
 31
0.0
 11
68.84998882877795
 21
98.77844333305143
 31
0.0
 11
69.34998882877806
 21
100.7991692752149
 31
0.0
  0
SPLINE
  5
1222
330
1F
100
AcDbEntity
  8
0
100
AcDbSpline
210
0.0
220
0.0
230
1.0
 70
  1064
 71
     3
 72
     9
 73
     5
 74
     3
 42
0.000000001
 43
0.0000000001
 44
0.0000000001
 12
0.4435327625727383
 22
-0.8962581595302744
 32
0.0
 13
-0.4435327625727376
 23
-0.8962581595302749
 33
0.0
 40
0.0
 40
0.0
 40
0.0
 40
0.0
 40
2.081665999466053
 40
4.163331998932106
 40
4.163331998932106
 40
4.163331998932106
 40
4.163331998932106
 10
73.44998882877809
 20
112.9235249281968
 30
0.0
 10
73.75775118594373
 20
112.3016215490507
 30
0.0
 10
74.14222647161245
 20
110.9027989860332
 30
0.0
 10
73.75775118594373
 20
109.5039764230156
 30
0.0
 10
73.44998882877809
 20
108.8820730438696
 30
0.0
 11
73.44998882877809
 21
112.9235249281968
 31
0.0
 11
73.94998882877809
 21
110.9027989860332
 31
0.0
 11
73.44998882877809
 21
108.8820730438696
 31
0.0
  0
SPLINE
  5
1223
330
1F
100
AcDbEntity
  8
0
100
AcDbSpline
210
0.0
220
0.0
230
1.0
 70
  1064
 71
     3
 72
     9
 73
     5
 74
     3
 42
0.000000001
 43
0.0000000001
 44
0.0000000001
 12
0.2401922307076403
 22
-0.9707253433941483
 32
0.0
 13
-0.2401922307076396
 23
-0.9707253433941486
 33
0.0
 40
0.0
 40
0.0
 40
0.0
 40
0.0
 40
4.072263907623488
 40
8.144527815247203
 40
8.144527815247203
 40
8.144527815247203
 40
8.144527815247203
 10
73.44998882877809
 20
108.8820730438696
 30
0.0
 10
73.77603087944553
 20
107.5643897838298
 30
0.0
 10
74.12394677811066
 20
104.8406211595422
 30
0.0
 10
73.77603087944554
 20
102.1168525352545
 30
0.0
 10
73.44998882877809
 20
100.7991692752147
 30
0.0
 11
73.44998882877809
 21
108.8820730438696
 31
0.0
 11
73.94998882877809
 21
104.8406211595422
 31
0.0
 11
73.44998882877809
 21
100.7991692752147
 31
0.0
  0
SPLINE
  5
1224
330
1F
100
AcDbEntity
  8
0
100
AcDbSpline
210
0.0
220
0.0
230
1.0
 70
  1064
 71
     3
 72
     9
 73
     5
 74
     3
 42
0.000000001
 43
0.0000000001
 44
0.0000000001
 12
-0.4435327625727378
 22
-0.8962581595302747
 32
0.0
 13
0.4435327625727385
 23
-0.8962581595302744
 33
0.0
 40
0.0
 40
0.0
 40
0.0
 40
0.0
 40
2.08166599946608
 40
4.16333199893216
 40
4.16333199893216
 40
4.16333199893216
 40
4.16333199893216
 10
69.34998882877806
 20
112.9235249281968
 30
0.0
 10
69.04222647161242
 20
112.3016215490507
 30
0.0
 10
68.65775118594348
 20
110.9027989860332
 30
0.0
 10
69.04222647161242
 20
109.5039764230156
 30
0.0
 10
69.34998882877806
 20
108.8820730438696
 30
0.0
 11
69.34998882877806
 21
112.9235249281968
 31
0.0
 11
68.84998882877795
 21
110.9027989860332
 31
0.0
 11
69.34998882877806
 21
108.8820730438696
 31
0.0
  0
SPLINE
  5
1225
330
1F
100
AcDbEntity
  8
0
100
AcDbSpline
210
0.0
220
0.0
230
1.0
 70
  1064
 71
     3
 72
     9
 73
     5
 74
     3
 42
0.000000001
 43
0.0000000001
 44
0.0000000001
 12
0.4435327625727383
 22
0.8962581595302744
 32
0.0
 13
-0.4435327625727378
 23
0.8962581595302747
 33
0.0
 40
0.0
 40
0.0
 40
0.0
 40
0.0
 40
2.081665999466053
 40
4.163331998932106
 40
4.163331998932106
 40
4.163331998932106
 40
4.163331998932106
 10
-163.0509501117774
 20
91.05800730787995
 30
0.0
 10
-162.7431877546118
 20
91.67991068702603
 30
0.0
 10
-162.3587124689431
 20
93.07873325004356
 30
0.0
 10
-162.7431877546118
 20
94.47755581306111
 30
0.0
 10
-163.0509501117774
 20
95.09945919220717
 30
0.0
 11
-163.0509501117774
 21
91.05800730787995
 31
0.0
 11
-162.5509501117774
 21
93.07873325004356
 31
0.0
 11
-163.0509501117774
 21
95.09945919220717
 31
0.0
  0
SPLINE
  5
1226
330
1F
100
AcDbEntity
  8
0
100
AcDbSpline
210
0.0
220
0.0
230
1.0
 70
  1064
 71
     3
 72
     9
 73
     5
 74
     3
 42
0.000000001
 43
0.0000000001
 44
0.0000000001
 12
-0.2401922307076403
 22
-0.9707253433941483
 32
0.0
 13
0.2401922307076396
 23
-0.9707253433941486
 33
0.0
 40
0.0
 40
0.0
 40
0.0
 40
0.0
 40
4.072263907623461
 40
8.144527815247148
 40
8.144527815247148
 40
8.144527815247148
 40
8.144527815247148
 10
-167.1509501117778
 20
103.1823629608618
 30
0.0
 10
-167.4769921624452
 20
101.864679700822
 30
0.0
 10
-167.82490806111
 20
99.14091107653447
 30
0.0
 10
-167.4769921624452
 20
96.41714245224683
 30
0.0
 10
-167.1509501117778
 20
95.09945919220696
 30
0.0
 11
-167.1509501117778
 21
103.1823629608618
 31
0.0
 11
-167.6509501117776
 21
99.14091107653451
 31
0.0
 11
-167.1509501117778
 21
95.09945919220696
 31
0.0
  0
SPLINE
  5
1227
330
1F
100
AcDbEntity
  8
0
100
AcDbSpline
210
0.0
220
0.0
230
1.0
 70
  1064
 71
     3
 72
     8
 73
     4
 74
     2
 42
0.000000001
 43
0.0000000001
 44
0.0000000001
 12
0.2747211278973558
 22
-0.9615239476408296
 32
0.0
 13
0.2121200541209339
 23
-0.9772436147858588
 33
0.0
 40
0.0
 40
0.0
 40
0.0
 40
0.0
 40
0.8574169031139138
 40
0.8574169031139138
 40
0.8574169031139138
 40
0.8574169031139138
 10
-139.5509501117774
 20
145.1409110765347
 30
0.0
 10
-139.4724332655435
 20
144.866102114716
 30
0.0
 10
-139.4026793153263
 20
144.5886322359784
 30
0.0
 10
-139.3420542086954
 20
144.3093305047192
 30
0.0
 11
-139.5509501117774
 21
145.1409110765347
 31
0.0
 11
-139.3420542086954
 21
144.3093305047192
 31
0.0
  0
SPLINE
  5
1228
330
1F
100
AcDbEntity
  8
0
100
AcDbSpline
210
0.0
220
0.0
230
1.0
 70
  1064
 71
     3
 72
     9
 73
     5
 74
     3
 42
0.000000001
 43
0.0000000001
 44
0.0000000001
 12
-0.4435327625727378
 22
0.8962581595302747
 32
0.0
 13
0.4435327625727383
 23
0.8962581595302744
 33
0.0
 40
0.0
 40
0.0
 40
0.0
 40
0.0
 40
2.081665999465998
 40
4.163331998931997
 40
4.163331998931997
 40
4.163331998931997
 40
4.163331998931997
 10
-167.1509501117778
 20
91.05800730787995
 30
0.0
 10
-167.4587124689435
 20
91.67991068702601
 30
0.0
 10
-167.8431877546117
 20
93.07873325004356
 30
0.0
 10
-167.4587124689435
 20
94.47755581306113
 30
0.0
 10
-167.1509501117778
 20
95.09945919220717
 30
0.0
 11
-167.1509501117778
 21
91.05800730787995
 31
0.0
 11
-167.6509501117776
 21
93.07873325004356
 31
0.0
 11
-167.1509501117778
 21
95.09945919220717
 31
0.0
  0
SPLINE
  5
1229
330
1F
100
AcDbEntity
  8
0
100
AcDbSpline
210
0.0
220
0.0
230
1.0
 70
  1064
 71
     3
 72
     9
 73
     5
 74
     3
 42
0.000000001
 43
0.0000000001
 44
0.0000000001
 12
-0.274721127897355
 22
-0.9615239476408298
 32
0.0
 13
0.2747211278973558
 23
-0.9615239476408296
 33
0.0
 40
0.0
 40
0.0
 40
0.0
 40
0.0
 40
3.535533905932818
 40
7.071067811865523
 40
7.071067811865523
 40
7.071067811865523
 40
7.071067811865523
 10
-143.6509501117778
 20
145.1409110765347
 30
0.0
 10
-143.9747120658969
 20
144.0077442371179
 30
0.0
 10
-144.3271881576583
 20
141.6409110765346
 30
0.0
 10
-143.9747120658969
 20
139.2740779159514
 30
0.0
 10
-143.6509501117778
 20
138.1409110765346
 30
0.0
 11
-143.6509501117778
 21
145.1409110765347
 31
0.0
 11
-144.1509501117776
 21
141.6409110765346
 31
0.0
 11
-143.6509501117778
 21
138.1409110765346
 31
0.0
  0
SPLINE
  5
122A
330
1F
100
AcDbEntity
  8
0
100
AcDbSpline
210
0.0
220
0.0
230
1.0
 70
  1064
 71
     3
 72
     9
 73
     5
 74
     3
 42
0.000000001
 43
0.0000000001
 44
0.0000000001
 12
0.274721127897355
 22
0.9615239476408298
 32
0.0
 13
-0.0052537793065575
 23
0.9999861988062626
 33
0.0
 40
0.0
 40
0.0
 40
0.0
 40
0.0
 40
3.535533905932737
 40
3.598247826551713
 40
3.598247826551713
 40
3.598247826551713
 40
3.598247826551713
 10
-139.5509501117774
 20
131.1409110765345
 30
0.0
 10
-139.2271881576584
 20
132.2740779159513
 30
0.0
 10
-139.0478368937701
 20
133.4833893981904
 30
0.0
 10
-139.0510051053476
 20
134.6827204288669
 30
0.0
 10
-139.0511149337138
 20
134.7036247805643
 30
0.0
 11
-139.5509501117774
 21
131.1409110765345
 31
0.0
 11
-139.0509501117774
 21
134.6409110765345
 31
0.0
 11
-139.0511149337138
 21
134.7036247805643
 31
0.0
  0
SPLINE
  5
122B
330
1F
100
AcDbEntity
  8
0
100
AcDbSpline
210
0.0
220
0.0
230
1.0
 70
  1064
 71
     3
 72
     9
 73
     5
 74
     3
 42
0.000000001
 43
0.0000000001
 44
0.0000000001
 12
-0.2747211278973558
 22
0.9615239476408296
 32
0.0
 13
0.274721127897355
 23
0.9615239476408298
 33
0.0
 40
0.0
 40
0.0
 40
0.0
 40
0.0
 40
3.535533905932705
 40
7.071067811865523
 40
7.071067811865523
 40
7.071067811865523
 40
7.071067811865523
 10
-143.6509501117778
 20
131.1409110765345
 30
0.0
 10
-143.9747120658969
 20
132.2740779159513
 30
0.0
 10
-144.3271881576583
 20
134.6409110765345
 30
0.0
 10
-143.9747120658969
 20
137.0077442371178
 30
0.0
 10
-143.6509501117778
 20
138.1409110765346
 30
0.0
 11
-143.6509501117778
 21
131.1409110765345
 31
0.0
 11
-144.1509501117776
 21
134.6409110765345
 31
0.0
 11
-143.6509501117778
 21
138.1409110765346
 31
0.0
  0
SPLINE
  5
122C
330
1F
100
AcDbEntity
  8
0
100
AcDbSpline
210
0.0
220
0.0
230
1.0
 70
  1064
 71
     3
 72
     9
 73
     5
 74
     3
 42
0.000000001
 43
0.0000000001
 44
0.0000000001
 12
-0.4435327625727383
 22
-0.8962581595302744
 32
0.0
 13
0.4435327625727378
 23
-0.8962581595302747
 33
0.0
 40
0.0
 40
0.0
 40
0.0
 40
0.0
 40
2.081665999466108
 40
4.163331998931997
 40
4.163331998931997
 40
4.163331998931997
 40
4.163331998931997
 10
-167.1509501117778
 20
107.223814845189
 30
0.0
 10
-167.4587124689435
 20
106.601911466043
 30
0.0
 10
-167.8431877546117
 20
105.2030889030254
 30
0.0
 10
-167.4587124689434
 20
103.8042663400078
 30
0.0
 10
-167.1509501117778
 20
103.1823629608618
 30
0.0
 11
-167.1509501117778
 21
107.223814845189
 31
0.0
 11
-167.6509501117776
 21
105.2030889030253
 31
0.0
 11
-167.1509501117778
 21
103.1823629608618
 31
0.0
  0
SPLINE
  5
122D
330
1F
100
AcDbEntity
  8
0
100
AcDbSpline
210
0.0
220
0.0
230
1.0
 70
  1064
 71
     3
 72
     8
 73
     4
 74
     2
 42
0.000000001
 43
0.0000000001
 44
0.0000000001
 12
0.4435327625727378
 22
-0.8962581595302747
 32
0.0
 13
0.2244320211028307
 23
-0.9744897474595093
 33
0.0
 40
0.0
 40
0.0
 40
0.0
 40
0.0
 40
1.151793883690612
 40
1.151793883690612
 40
1.151793883690612
 40
1.151793883690612
 10
-163.0509501117774
 20
107.223814845189
 30
0.0
 10
-162.8806640040616
 20
106.8797132897374
 30
0.0
 10
-162.7468894027681
 20
106.5142767761511
 30
0.0
 10
-162.6607229263646
 20
106.1401396658701
 30
0.0
 11
-163.0509501117774
 21
107.223814845189
 31
0.0
 11
-162.6607229263646
 21
106.1401396658701
 31
0.0
  0
SPLINE
  5
122E
330
1F
100
AcDbEntity
  8
0
100
AcDbSpline
210
0.0
220
0.0
230
1.0
 70
  1064
 71
     3
 72
     8
 73
     4
 74
     2
 42
0.000000001
 43
0.0000000001
 44
0.0000000001
 12
-0.1558918069227364
 22
-0.9877741363967594
 32
0.0
 13
-0.2401922307076404
 23
-0.9707253433941486
 33
0.0
 40
0.0
 40
0.0
 40
0.0
 40
0.0
 40
1.487764257405321
 40
1.487764257405321
 40
1.487764257405321
 40
1.487764257405321
 10
-162.7558109680565
 20
96.55765512261428
 30
0.0
 10
-162.8331210541772
 20
96.06779677110743
 30
0.0
 10
-162.9318336398597
 20
95.5808626820934
 30
0.0
 10
-163.0509501117774
 20
95.09945919220696
 30
0.0
 11
-162.7558109680565
 21
96.55765512261428
 31
0.0
 11
-163.0509501117774
 21
95.09945919220696
 31
0.0
  0
LINE
  5
122F
330
1F
100
AcDbEntity
  8
0
100
AcDbLine
 10
24.74998882239043
 20
5.500000538073891
 30
0.0
 11
24.24998828303859
 21
4.999999998722046
 31
0.0
  0
LINE
  5
1230
330
1F
100
AcDbEntity
  8
0
100
AcDbLine
 10
24.24998828303847
 20
11.99999945745367
 30
0.0
 11
24.74998814804058
 21
11.49999959245156
 31
0.0
  0
LINE
  5
1231
330
1F
100
AcDbEntity
  8
0
100
AcDbLine
 10
24.74998882877793
 20
11.5
 30
0.0
 11
24.74998882877793
 21
5.500000000000113
 31
0.0
  0
ARC
  5
1232
330
1F
100
AcDbEntity
  8
2
100
AcDbCircle
 10
23.74996594059433
 20
4.000015258789176
 30
0.0
 40
1.0
100
AcDbArc
 50
359.9999974955216
 51
90.0
  0
LINE
  5
1233
330
1F
100
AcDbEntity
  8
0
100
AcDbLine
 10
-183.2500111712221
 20
25.14094159411263
 30
0.0
 11
-183.2500111712221
 21
60.14094159411263
 31
0.0
  0
LINE
  5
1234
330
1F
100
AcDbEntity
  8
0
100
AcDbLine
 10
123.7499888287779
 20
132.1407432298547
 30
0.0
 11
123.7499888287779
 21
134.1406211595422
 31
0.0
  0
LINE
  5
1235
330
1F
100
AcDbEntity
  8
0
100
AcDbLine
 10
79.74998882877793
 20
172.2406211595422
 30
0.0
 11
79.74998882877793
 21
134.1406211595422
 31
0.0
  0
LINE
  5
1236
330
1F
100
AcDbEntity
  8
0
100
AcDbLine
 10
119.7499888287779
 20
172.2406211595422
 30
0.0
 11
119.7499888287779
 21
134.1406211595422
 31
0.0
  0
LINE
  5
1237
330
1F
100
AcDbEntity
  8
0
100
AcDbLine
 10
-100.2500111712222
 20
60.14092633532346
 30
0.0
 11
-103.0164906634096
 21
60.14092633532346
 31
0.0
  0
ARC
  5
1238
330
1F
100
AcDbEntity
  8
0
100
AcDbCircle
 10
-179.0509501086885
 20
99.14091107653474
 30
0.0
 40
5.0
100
AcDbArc
 50
90.0
 51
180.0
  0
LINE
  5
1239
330
1F
100
AcDbEntity
  8
0
100
AcDbLine
 10
-153.9509501117773
 20
144.7409110765346
 30
0.0
 11
-143.7585557007941
 21
144.7409110765346
 31
0.0
  0
LINE
  5
123A
330
1F
100
AcDbEntity
  8
0
100
AcDbLine
 10
-153.9509501117773
 20
131.5409110765346
 30
0.0
 11
-143.7585557007941
 21
131.5409110765346
 31
0.0
  0
LINE
  5
123B
330
1F
100
AcDbEntity
  8
0
100
AcDbLine
 10
65.64998882568824
 20
87.64062115492516
 30
0.0
 11
52.44998883186707
 21
87.64062115954232
 31
0.0
  0
LINE
  5
123C
330
1F
100
AcDbEntity
  8
0
100
AcDbLine
 10
68.84998882877773
 20
109.8406211595422
 30
0.0
 11
57.44998883186707
 21
109.8406211595422
 31
0.0
  0
LINE
  5
123D
330
1F
100
AcDbEntity
  8
0
100
AcDbLine
 10
65.64998879910882
 20
99.84062187661255
 30
0.0
 11
65.64998882568835
 21
87.64062115954232
 31
0.0
  0
LINE
  5
123E
330
1F
100
AcDbEntity
  8
0
100
AcDbLine
 10
52.44998883186707
 20
104.8406211595423
 30
0.0
 11
52.44998883186707
 21
87.64062115954232
 31
0.0
  0
LINE
  5
123F
330
1F
100
AcDbEntity
  8
0
100
AcDbLine
 10
68.84998882877749
 20
99.84062115954328
 30
0.0
 11
65.64998879910837
 21
99.84062187661345
 31
0.0
  0
ARC
  5
1240
330
1F
100
AcDbEntity
  8
0
100
AcDbCircle
 10
57.44998883186707
 20
104.8406211595425
 30
0.0
 40
5.0
100
AcDbArc
 50
90.0
 51
180.0
  0
CIRCLE
  5
1276
330
1F
100
AcDbEntity
  8
0
100
AcDbCircle
 10
99.99999999999994
 20
104.8406211595422
 30
0.0
 40
18.74999998580728
  0
LINE
  5
1278
330
1F
100
AcDbEntity
  8
0
100
AcDbLine
 10
83.98812555098743
 20
393.0636496102793
 30
0.0
 11
83.98812555098743
 21
390.5636496102793
 31
0.0
  0
LINE
  5
1279
330
1F
100
AcDbEntity
  8
0
100
AcDbLine
 10
65.98812555098743
 20
397.0636496102793
 30
0.0
 11
65.98812555098743
 21
393.0636496102793
 31
0.0
  0
LINE
  5
127A
330
1F
100
AcDbEntity
  8
0
100
AcDbLine
 10
65.98812555098743
 20
397.0636496102793
 30
0.0
 11
62.98812555098743
 21
397.0636496102793
 31
0.0
  0
LINE
  5
127B
330
1F
100
AcDbEntity
  8
0
100
AcDbLine
 10
62.98812555098743
 20
397.0636496102793
 30
0.0
 11
62.98812555098743
 21
400.0636496102792
 31
0.0
  0
LINE
  5
127C
330
1F
100
AcDbEntity
  8
0
100
AcDbLine
 10
62.98812555098743
 20
400.0636496102792
 30
0.0
 11
74.98812555098743
 21
400.0636496102792
 31
0.0
  0
LINE
  5
127D
330
1F
100
AcDbEntity
  8
0
100
AcDbLine
 10
74.98812555098743
 20
400.0636496102792
 30
0.0
 11
74.98812555098743
 21
397.0636496102793
 31
0.0
  0
LINE
  5
127E
330
1F
100
AcDbEntity
  8
0
100
AcDbLine
 10
74.98812555098743
 20
397.0636496102793
 30
0.0
 11
71.98812555098744
 21
397.0636496102793
 31
0.0
  0
LINE
  5
127F
330
1F
100
AcDbEntity
  8
0
100
AcDbLine
 10
71.98812555098744
 20
397.0636496102793
 30
0.0
 11
71.98812555098744
 21
393.0636496102793
 31
0.0
  0
LINE
  5
1280
330
1F
100
AcDbEntity
  8
0
100
AcDbLine
 10
65.98812555098743
 20
390.5636496102793
 30
0.0
 11
65.98812555098743
 21
389.0636496102793
 31
0.0
  0
LINE
  5
1281
330
1F
100
AcDbEntity
  8
0
100
AcDbLine
 10
72.45223687911243
 20
389.0637061154825
 30
0.0
 11
65.53909184042329
 21
389.0636496102793
 31
0.0
  0
LINE
  5
1282
330
1F
100
AcDbEntity
  8
0
100
AcDbLine
 10
65.53909184042329
 20
389.0636496102793
 30
0.0
 11
64.36931351049087
 21
388.6992975393642
 31
0.0
  0
LINE
  5
1283
330
1F
100
AcDbEntity
  8
0
100
AcDbLine
 10
64.36931351049087
 20
388.6992975393642
 30
0.0
 11
64.36931351049087
 21
385.0636496102793
 31
0.0
  0
LINE
  5
1284
330
1F
100
AcDbEntity
  8
0
100
AcDbLine
 10
71.98812555098744
 20
390.5636496102793
 30
0.0
 11
71.98813781093943
 21
389.0637023221278
 31
0.0
  0
LINE
  5
1285
330
1F
100
AcDbEntity
  8
0
100
AcDbLine
 10
72.43715926155157
 20
389.0636496102793
 30
0.0
 11
73.60689996504993
 21
388.6992697274668
 31
0.0
  0
LINE
  5
1286
330
1F
100
AcDbEntity
  8
0
100
AcDbLine
 10
73.60689996504993
 20
388.6992697274668
 30
0.0
 11
73.60689996504993
 21
385.0636496102793
 31
0.0
  0
LINE
  5
1287
330
1F
100
AcDbEntity
  8
0
100
AcDbLine
 10
64.36935113692493
 20
382.5636496102793
 30
0.0
 11
64.36931351049087
 21
378.9280016811944
 31
0.0
  0
LINE
  5
1288
330
1F
100
AcDbEntity
  8
0
100
AcDbLine
 10
64.36931351049087
 20
378.9280016811944
 30
0.0
 11
65.52401422286243
 21
378.5635931050761
 31
0.0
  0
LINE
  5
1289
330
1F
100
AcDbEntity
  8
0
100
AcDbLine
 10
65.52401422286243
 20
378.5635931050761
 30
0.0
 11
72.45223691108416
 21
378.5635931050761
 31
0.0
  0
LINE
  5
128A
330
1F
100
AcDbEntity
  8
0
100
AcDbLine
 10
72.45223691108416
 20
378.5635931050761
 30
0.0
 11
73.60693764384416
 21
378.9280017178983
 31
0.0
  0
LINE
  5
128B
330
1F
100
AcDbEntity
  8
0
100
AcDbLine
 10
73.60693764384416
 20
378.9280017178983
 30
0.0
 11
73.60693764384416
 21
382.5636496102793
 31
0.0
  0
LINE
  5
128C
330
1F
100
AcDbEntity
  8
0
100
AcDbLine
 10
65.98812555098743
 20
378.5635931050761
 30
0.0
 11
65.98812555098743
 21
375.5636496102793
 31
0.0
  0
LINE
  5
128D
330
1F
100
AcDbEntity
  8
0
100
AcDbLine
 10
65.98812555098743
 20
375.5636496102793
 30
0.0
 11
71.98812555098744
 21
375.5636496102793
 31
0.0
  0
LINE
  5
128E
330
1F
100
AcDbEntity
  8
0
100
AcDbLine
 10
71.98812555098744
 20
375.5636496102793
 30
0.0
 11
71.98812555098744
 21
378.563593105076
 31
0.0
  0
LINE
  5
128F
330
1F
100
AcDbEntity
  8
0
100
AcDbLine
 10
83.98812555098743
 20
393.0636496102793
 30
0.0
 11
-35.01187444901257
 21
393.0636496102793
 31
0.0
  0
LINE
  5
1290
330
1F
100
AcDbEntity
  8
0
100
AcDbLine
 10
-35.01187444901257
 20
393.0636496102793
 30
0.0
 11
-35.01187444901257
 21
390.5636496102793
 31
0.0
  0
LINE
  5
1291
330
1F
100
AcDbEntity
  8
0
100
AcDbLine
 10
-35.01187444901257
 20
390.5636496102793
 30
0.0
 11
83.98812555098743
 21
390.5636496102793
 31
0.0
  0
LINE
  5
1292
330
1F
100
AcDbEntity
  8
0
100
AcDbLine
 10
-15.77350277594464
 20
385.5679517244028
 30
0.0
 11
-14.33012717307036
 21
385.0636345700415
 31
0.0
  0
LINE
  5
1293
330
1F
100
AcDbEntity
  8
0
100
AcDbLine
 10
-5.669872932836597
 20
385.0636345700415
 30
0.0
 11
-4.226497402727773
 21
385.5679513567941
 31
0.0
  0
LINE
  5
1295
330
1F
100
AcDbEntity
  8
0
100
AcDbLine
 10
-15.77350277594464
 20
385.5679517244028
 30
0.0
 11
-15.77350277594464
 21
390.563649977888
 31
0.0
  0
LINE
  5
1297
330
1F
100
AcDbEntity
  8
0
100
AcDbLine
 10
-4.226497402727773
 20
385.5679513567941
 30
0.0
 11
-4.226497402727773
 21
390.5636496102793
 31
0.0
  0
LINE
  5
1299
330
1F
100
AcDbEntity
  8
0
100
AcDbLine
 10
5.672722448729707
 20
385.0636345700417
 30
0.0
 11
14.33297658305697
 21
385.0636345700417
 31
0.0
  0
LINE
  5
129A
330
1F
100
AcDbEntity
  8
0
100
AcDbLine
 10
4.229346739948928
 20
385.5679517244028
 30
0.0
 11
5.672722342823204
 21
385.0636345700415
 31
0.0
  0
LINE
  5
129B
330
1F
100
AcDbEntity
  8
0
100
AcDbLine
 10
14.33297658305697
 20
385.0636345700415
 30
0.0
 11
15.77635211316579
 21
385.5679513567941
 31
0.0
  0
LINE
  5
129C
330
1F
100
AcDbEntity
  8
0
100
AcDbLine
 10
4.229346739948928
 20
385.5679517244028
 30
0.0
 11
4.229346739948928
 21
390.563649977888
 31
0.0
  0
LINE
  5
129D
330
1F
100
AcDbEntity
  8
0
100
AcDbLine
 10
15.77635211316579
 20
385.5679513567941
 30
0.0
 11
15.77635211316579
 21
390.5636496102793
 31
0.0
  0
CIRCLE
  5
129E
330
1F
100
AcDbEntity
  8
0
100
AcDbCircle
 10
0.0
 20
404.0636343514901
 30
0.0
 40
9.814954231578996
  0
LINE
  5
129F
330
1F
100
AcDbEntity
  8
0
100
AcDbLine
 10
-122.5055534241378
 20
378.4387544512275
 30
0.0
 11
-120.6291649488939
 21
379.1636493519931
 31
0.0
  0
LINE
  5
12A1
330
1F
100
AcDbEntity
  8
0
100
AcDbLine
 10
-109.3708350067487
 20
379.1636493519931
 30
0.0
 11
-107.4944466541556
 21
378.4387545223332
 31
0.0
  0
LINE
  5
12A3
330
1F
100
AcDbEntity
  8
0
100
AcDbLine
 10
0.6291649488937879
 20
379.1636493519937
 30
0.0
 11
-10.62916494889379
 21
379.1636493519937
 31
0.0
  0
LINE
  5
12A4
330
1F
100
AcDbEntity
  8
0
100
AcDbLine
 10
2.505553424137758
 20
378.4387553340141
 30
0.0
 11
2.505553424137758
 21
372.0636496102792
 31
0.0
  0
LINE
  5
12A5
330
1F
100
AcDbEntity
  8
0
100
AcDbLine
 10
-12.50555342413764
 20
378.4387553340141
 30
0.0
 11
-12.50555342413764
 21
372.0636496102792
 31
0.0
  0
LINE
  5
12A6
330
1F
100
AcDbEntity
  8
0
100
AcDbLine
 10
-12.50555342413764
 20
378.4387544512275
 30
0.0
 11
-10.62916494889379
 21
379.1636493519931
 31
0.0
  0
LINE
  5
12A7
330
1F
100
AcDbEntity
  8
0
100
AcDbLine
 10
0.6291649932514929
 20
379.1636493519931
 30
0.0
 11
2.505553345844518
 21
378.4387545223332
 31
0.0
  0
LINE
  5
12A8
330
1F
100
AcDbEntity
  8
0
100
AcDbLine
 10
24.55003765690281
 20
269.2636007821543
 30
0.0
 11
24.55003765690281
 21
306.5636496102793
 31
0.0
  0
LINE
  5
12A9
330
1F
100
AcDbEntity
  8
0
100
AcDbLine
 10
-100.0500599993457
 20
269.2636007821544
 30
0.0
 11
-100.0500599993456
 21
281.563649610277
 31
0.0
  0
LINE
  5
12AA
330
1F
100
AcDbEntity
  8
0
100
AcDbLine
 10
-183.2500111712223
 20
295.0636496102799
 30
0.0
 11
-183.2500111712221
 21
323.0636490460195
 31
0.0
  0
LINE
  5
12AB
330
1F
100
AcDbEntity
  8
0
100
AcDbLine
 10
30.35118699601844
 20
385.0636496618985
 30
0.0
 11
91.76406763727754
 21
385.0636496618985
 31
0.0
  0
LINE
  5
12AC
330
1F
100
AcDbEntity
  8
0
100
AcDbLine
 10
-156.4999542236328
 20
320.0636496102793
 30
0.0
 11
-156.4999542236328
 21
326.2097851712381
 31
0.0
  0
LINE
  5
12AD
330
1F
100
AcDbEntity
  8
0
100
AcDbLine
 10
-177.1999542236326
 20
337.6636496102793
 30
0.0
 11
-167.0075598126492
 21
337.6636496102793
 31
0.0
  0
LINE
  5
12AE
330
1F
100
AcDbEntity
  8
0
100
AcDbLine
 10
-177.1999542236324
 20
324.4636496102793
 30
0.0
 11
-167.0075598126492
 21
324.4636496102793
 31
0.0
  0
ARC
  5
12B0
330
1F
100
AcDbEntity
  8
0
100
AcDbCircle
 10
-177.1999542236326
 20
331.0636496102793
 30
0.0
 40
6.599999999999996
100
AcDbArc
 50
90.0
 51
270.0
  0
VIEWPORT
  5
71
102
{ACAD_XDICTIONARY
360
12F1
102
}
330
55
100
AcDbEntity
 67
     1
  8
0
100
AcDbViewport
 10
133.3499908447266
 20
101.5999970436096
 30
0.0
 40
381.3957395593835
 41
218.2856291881582
 68
     1
 69
     1
 12
133.3499908447266
 22
101.5999970436096
 13
0.0
 23
0.0
 14
10.0
 24
10.0
 15
10.0
 25
10.0
 16
0.0
 26
0.0
 36
1.0
 17
0.0
 27
0.0
 37
0.0
 42
50.0
 43
0.0
 44
0.0
 45
218.2856291881582
 50
0.0
 51
0.0
 72
   100
 90
    32800
  1

281
     0
 71
     1
 74
     0
110
0.0
120
0.0
130
0.0
111
1.0
121
0.0
131
0.0
112
0.0
122
1.0
132
0.0
 79
     0
146
0.0
  0
VIEWPORT
  5
73
102
{ACAD_XDICTIONARY
360
12F3
102
}
330
55
100
AcDbEntity
 67
     1
  8
0
100
AcDbViewport
 10
133.3499939441681
 20
101.5999939441681
 30
0.0
 40
213.3599903106689
 41
162.5599903106689
 68
     2
 69
     2
 12
210.0
 22
148.5
 13
0.0
 23
0.0
 14
10.0
 24
10.0
 15
10.0
 25
10.0
 16
0.0
 26
0.0
 36
1.0
 17
0.0
 27
0.0
 37
0.0
 42
50.0
 43
0.0
 44
0.0
 45
324.0677920111345
 50
0.0
 51
0.0
 72
   100
 90
    32864
  1

281
     0
 71
     1
 74
     0
110
0.0
120
0.0
130
0.0
111
1.0
121
0.0
131
0.0
112
0.0
122
1.0
132
0.0
 79
     0
146
0.0
  0
ENDSEC
  0
SECTION
  2
OBJECTS
  0
DICTIONARY
  5
C
330
0
100
AcDbDictionary
281
     1
  3
ACAD_CIP_PREVIOUS_PRODUCT_INFO
350
3F7
  3
ACAD_COLOR
350
3DA
  3
ACAD_DETAILVIEWSTYLE
350
3F3
  3
ACAD_GROUP
350
D
  3
ACAD_LAYOUT
350
1A
  3
ACAD_MATERIAL
350
3A8
  3
ACAD_MLEADERSTYLE
350
3EF
  3
ACAD_MLINESTYLE
350
17
  3
ACAD_PLOTSETTINGS
350
19
  3
ACAD_PLOTSTYLENAME
350
E
  3
ACAD_SCALELIST
350
3DD
  3
ACAD_SECTIONVIEWSTYLE
350
3F1
  3
ACAD_TABLESTYLE
350
3DB
  3
ACAD_VISUALSTYLE
350
3C1
  3
ACDB_RECOMPOSE_DATA
350
12DD
  3
AcDbVariableDictionary
350
5E
  3
AcDsDecomposeData
350
12E4
  3
DWGPROPS
350
12DE
  0
DICTIONARY
  5
97
330
2
100
AcDbDictionary
280
     1
281
     1
  3
ACAD_LAYERSTATES
360
98
  0
DICTIONARY
  5
1255
330
10
100
AcDbDictionary
280
     1
281
     1
  3
ADSK_XREC_LAYER_RECONCILED
360
1256
  0
DICTIONARY
  5
90
330
8F
100
AcDbDictionary
280
     1
281
     1
  3
ADSK_XREC_LAYER_RECONCILED
360
91
  0
DICTIONARY
  5
93
330
92
100
AcDbDictionary
280
     1
281
     1
  3
ADSK_XREC_LAYER_RECONCILED
360
94
  0
DICTIONARY
  5
117B
330
1F
100
AcDbDictionary
280
     1
281
     1
  3
ACAD_SORTENTS
360
117C
  0
DICTIONARY
  5
12ED
330
6B
100
AcDbDictionary
280
     1
281
     1
  3
ACAD_XREC_ROUNDTRIP
360
12EE
  0
DICTIONARY
  5
12EF
330
6D
100
AcDbDictionary
280
     1
281
     1
  3
ACAD_XREC_ROUNDTRIP
360
12F0
  0
DICTIONARY
  5
1330
330
491
100
AcDbDictionary
280
     1
281
     1
  3
ACAD_MTEXT_RT
360
1331
  0
DICTIONARY
  5
1332
330
498
100
AcDbDictionary
280
     1
281
     1
  3
ACAD_MTEXT_RT
360
1333
  0
DICTIONARY
  5
1334
330
49F
100
AcDbDictionary
280
     1
281
     1
  3
ACAD_MTEXT_RT
360
1335
  0
DICTIONARY
  5
1336
330
4A9
100
AcDbDictionary
280
     1
281
     1
  3
ACAD_MTEXT_RT
360
1337
  0
DICTIONARY
  5
1338
330
4AA
100
AcDbDictionary
280
     1
281
     1
  3
ACAD_MTEXT_RT
360
1339
  0
DICTIONARY
  5
4C0
330
4BF
100
AcDbDictionary
280
     1
281
     1
  3
ACAD_MTEXT_RT
360
133A
  0
DICTIONARY
  5
133B
330
4C8
100
AcDbDictionary
280
     1
281
     1
  3
ACAD_MTEXT_RT
360
133C
  0
DICTIONARY
  5
12F1
330
71
100
AcDbDictionary
280
     1
281
     1
  3
ACAD_XREC_ROUNDTRIP
360
12F2
  0
DICTIONARY
  5
12F3
330
73
100
AcDbDictionary
280
     1
281
     1
  3
ACAD_XREC_ROUNDTRIP
360
12F4
  0
XRECORD
  5
3F7
102
{ACAD_REACTORS
330
C
102
}
330
C
100
AcDbXrecord
280
     1
300
ACD
300
2023
300

  0
DICTIONARY
  5
3DA
102
{ACAD_REACTORS
330
C
102
}
330
C
100
AcDbDictionary
281
     1
  0
DICTIONARY
  5
3F3
102
{ACAD_REACTORS
330
C
102
}
330
C
100
AcDbDictionary
281
     1
  3
Imperial24
350
12BF
  3
Metric50
350
3F4
  0
DICTIONARY
  5
D
102
{ACAD_REACTORS
330
C
102
}
330
C
100
AcDbDictionary
281
     1
  0
DICTIONARY
  5
1A
102
{ACAD_REACTORS
330
C
102
}
330
C
100
AcDbDictionary
281
     1
  3
Model
350
22
  3
\U+FF9A\U+FF72\U+FF71\U+FF73\U+FF841
350
51
  3
\U+FF9A\U+FF72\U+FF71\U+FF73\U+FF842
350
56
  0
DICTIONARY
  5
3A8
102
{ACAD_REACTORS
330
C
102
}
330
C
100
AcDbDictionary
281
     1
  3
ByBlock
350
3B1
  3
ByLayer
350
3A9
  3
Global
350
3B9
  0
DICTIONARY
  5
3EF
102
{ACAD_REACTORS
330
C
102
}
330
C
100
AcDbDictionary
281
     1
  3
Standard
350
3F0
  0
DICTIONARY
  5
17
102
{ACAD_REACTORS
330
C
102
}
330
C
100
AcDbDictionary
281
     1
  3
Standard
350
18
  0
DICTIONARY
  5
19
102
{ACAD_REACTORS
330
C
102
}
330
C
100
AcDbDictionary
281
     1
  0
ACDBDICTIONARYWDFLT
  5
E
102
{ACAD_REACTORS
330
C
102
}
330
C
100
AcDbDictionary
281
     1
  3
Normal
350
F
100
AcDbDictionaryWithDefault
340
F
  0
DICTIONARY
  5
3DD
102
{ACAD_REACTORS
330
C
102
}
330
C
100
AcDbDictionary
281
     1
  3
A0
350
3DE
  3
A1
350
3DF
  3
A2
350
3E0
  3
A3
350
3E1
  3
A4
350
3E2
  3
A5
350
3E3
  3
A6
350
3E4
  3
A7
350
3E5
  3
A8
350
3E6
  3
A9
350
3E7
  3
B0
350
3E8
  3
B1
350
3E9
  3
B2
350
3EA
  3
B3
350
3EB
  3
B4
350
3EC
  3
B5
350
3ED
  3
B6
350
3EE
  0
DICTIONARY
  5
3F1
102
{ACAD_REACTORS
330
C
102
}
330
C
100
AcDbDictionary
281
     1
  3
Imperial24
350
12BE
  3
Metric50
350
3F2
  0
DICTIONARY
  5
3DB
102
{ACAD_REACTORS
330
C
102
}
330
C
100
AcDbDictionary
281
     1
  3
Standard
350
3DC
  0
DICTIONARY
  5
3C1
102
{ACAD_REACTORS
330
C
102
}
330
C
100
AcDbDictionary
281
     1
  3
2dWireframe
350
3C7
  3
Basic
350
3C6
  3
Brighten
350
3CD
  3
ColorChange
350
3D1
  3
Conceptual
350
3CA
  3
Dim
350
3CC
  3
EdgeColorOff
350
3D9
  3
Facepattern
350
3D0
  3
Flat
350
3C2
  3
FlatWithEdges
350
3C3
  3
Gouraud
350
3C4
  3
GouraudWithEdges
350
3C5
  3
Hidden
350
3C9
  3
JitterOff
350
3D7
  3
Linepattern
350
3CF
  3
OverhangOff
350
3D8
  3
Realistic
350
3CB
  3
Shaded
350
3D6
  3
Shaded with edges
350
3D5
  3
Shades of Gray
350
3D2
  3
Sketchy
350
3D3
  3
Thicken
350
3CE
  3
Wireframe
350
3C8
  3
X-Ray
350
3D4
  0
XRECORD
  5
12DD
102
{ACAD_REACTORS
330
C
102
}
330
C
100
AcDbXrecord
280
     1
 90
        1
330
3DC
  0
DICTIONARY
  5
5E
102
{ACAD_REACTORS
330
C
102
}
330
C
100
AcDbDictionary
281
     1
  3
CANNOSCALE
350
1263
  3
CMLEADERSTYLE
350
125F
  3
CTABLESTYLE
350
125E
  3
CVIEWDETAILSTYLE
350
1260
  3
CVIEWSECTIONSTYLE
350
1261
  3
DIMASSOC
350
5F
  3
HIDETEXT
350
63
  3
INDEXCTL
350
12D9
  3
LAYEREVAL
350
1265
  3
LAYERNOTIFY
350
1266
  3
LIGHTINGUNITS
350
1264
  3
MSLTSCALE
350
1262
  3
SORTENTS
350
12D8
  3
XCLIPFRAME
350
12DA
  0
DICTIONARY
  5
12E4
102
{ACAD_REACTORS
330
C
102
}
330
C
100
AcDbDictionary
281
     1
  3
AcDsRecords
350
12E6
  3
AcDsSchemas
350
12E5
1001
ACAD
1070
     2
  0
XRECORD
  5
12DE
102
{ACAD_REACTORS
330
C
102
}
330
C
100
AcDbXrecord
280
     1
  1
DWGPROPS COOKIE
  2

  3

  4

  6

  7

  8
t-kanatani
  9

300
=
301
=
302
=
303
=
304
=
305
=
306
=
307
=
308
=
309
=
 40
0.0596822685185185
 41
2456874.593206019
 42
2460175.596064815
  1

 90
        0
  0
DICTIONARY
  5
98
102
{ACAD_REACTORS
330
97
102
}
330
97
100
AcDbDictionary
281
     1
  0
XRECORD
  5
1256
102
{ACAD_REACTORS
330
1255
102
}
330
1255
100
AcDbXrecord
280
     1
290
     1
  0
XRECORD
  5
91
102
{ACAD_REACTORS
330
90
102
}
330
90
100
AcDbXrecord
280
     1
290
     1
  0
XRECORD
  5
94
102
{ACAD_REACTORS
330
93
102
}
330
93
100
AcDbXrecord
280
     1
290
     1
  0
SORTENTSTABLE
  5
117C
102
{ACAD_REACTORS
330
117B
102
}
330
117B
100
AcDbSortentsTable
330
1F
331
FFD
  5
FFF
331
FFF
  5
1001
331
1000
  5
1002
331
1018
  5
101A
331
1023
  5
1025
331
1024
  5
1026
331
1025
  5
1027
331
1026
  5
1028
331
1028
  5
102A
331
1029
  5
102B
331
102B
  5
102D
331
102C
  5
102E
331
103C
  5
103E
331
1047
  5
1049
331
1048
  5
104A
331
1049
  5
104B
331
104A
  5
104C
331
104B
  5
104D
331
104C
  5
104E
331
104F
  5
1051
331
1050
  5
1052
331
1051
  5
1053
331
1055
  5
1057
331
105B
  5
105D
331
105D
  5
105F
331
105E
  5
1060
331
1060
  5
1062
331
1062
  5
1064
331
1063
  5
1065
331
1066
  5
1068
331
1067
  5
1069
331
106A
  5
106C
331
106B
  5
106D
331
106C
  5
106E
331
106D
  5
106F
331
1070
  5
1072
331
1071
  5
1073
331
1078
  5
107A
331
107C
  5
107E
331
1084
  5
1086
331
1086
  5
1088
331
1099
  5
10B2
331
109A
  5
10B3
331
10B0
  5
10B4
331
10B1
  5
10B5
331
10B2
  5
10B6
331
10B3
  5
10B7
331
10B4
  5
10B8
331
10B5
  5
10B9
331
10B6
  5
10BA
331
10B7
  5
10BB
331
10B8
  5
10C9
331
10B9
  5
10CA
331
11BF
  5
11C1
331
11C0
  5
11C2
331
11C1
  5
11C3
331
11C2
  5
11C4
331
11C3
  5
11C5
331
11C4
  5
11C6
331
11C5
  5
11C7
331
11C6
  5
11C8
331
11C7
  5
11C9
331
11C8
  5
11CA
331
11C9
  5
11CB
331
11CA
  5
11CC
331
11CB
  5
11CD
331
11CC
  5
11CE
331
11CD
  5
11CF
331
11CE
  5
11D0
331
11CF
  5
11D1
331
11D0
  5
11D2
331
11D1
  5
11D3
331
11D2
  5
11D4
331
11D3
  5
11D5
331
11D4
  5
11D6
331
11D5
  5
11D7
331
11D6
  5
11D8
331
11D7
  5
11D9
331
11D8
  5
11DA
331
11D9
  5
11DB
331
11DA
  5
11DC
331
11DB
  5
11DD
331
11DC
  5
11DE
331
11DD
  5
11DF
331
11DE
  5
11E0
331
11DF
  5
11E1
331
11E0
  5
11E2
331
11E1
  5
11E3
331
11E2
  5
11E4
331
11E3
  5
11E5
331
11E5
  5
11E7
331
11E6
  5
11E8
331
11E7
  5
11E9
331
11E8
  5
11EA
331
11E9
  5
11EB
331
11EA
  5
11EC
331
11EB
  5
11ED
331
11EC
  5
11EE
331
11ED
  5
11EF
331
11EE
  5
11F0
331
11EF
  5
11F1
331
11F0
  5
11F2
331
11F1
  5
11F3
331
11F2
  5
11F4
331
11F3
  5
11F5
331
11F4
  5
11F6
331
11F5
  5
11F7
331
11F6
  5
11F8
331
11F7
  5
11F9
331
11F8
  5
11FA
331
11F9
  5
11FB
331
11FA
  5
11FC
331
11FB
  5
11FD
331
11FC
  5
11FE
331
11FD
  5
11FF
331
11FE
  5
1200
331
11FF
  5
1201
331
1200
  5
1202
331
1201
  5
1203
331
1202
  5
1204
331
1203
  5
1205
331
1204
  5
1206
331
1205
  5
1207
331
1206
  5
1208
331
1207
  5
1209
331
1208
  5
120A
331
1209
  5
120B
331
120A
  5
120C
331
120B
  5
120D
331
120C
  5
120E
331
120D
  5
120F
331
120E
  5
1210
331
120F
  5
1211
331
1211
  5
1213
331
1212
  5
1214
331
1213
  5
1215
331
1214
  5
1216
331
1215
  5
1217
331
1216
  5
1218
331
1217
  5
1219
331
1218
  5
121A
331
1219
  5
121B
331
121A
  5
121C
331
121B
  5
121D
331
121C
  5
121E
331
121D
  5
121F
331
121E
  5
1220
331
121F
  5
1221
331
1220
  5
1222
331
1221
  5
1223
331
1222
  5
1224
331
1223
  5
1225
331
1224
  5
1226
331
1225
  5
1227
331
1226
  5
1228
331
1227
  5
1229
331
1228
  5
122A
331
1229
  5
122B
331
122A
  5
122C
331
122B
  5
122D
331
122C
  5
122E
331
122D
  5
122F
331
122E
  5
1230
331
122F
  5
1231
331
1230
  5
1232
331
1231
  5
1233
331
1232
  5
1234
331
1233
  5
1235
331
1234
  5
1236
331
1235
  5
1237
331
1236
  5
1238
331
1237
  5
1239
331
1238
  5
123A
331
1239
  5
123B
331
123A
  5
123C
331
123B
  5
123D
331
123C
  5
123E
331
123D
  5
123F
331
123E
  5
1240
331
123F
  5
1276
331
1240
  5
1278
331
1276
  5
1279
331
1278
  5
127A
331
1279
  5
127B
331
127A
  5
127C
331
127B
  5
127D
331
127C
  5
127E
331
127D
  5
127F
331
127E
  5
1280
331
127F
  5
1281
331
1280
  5
1282
331
1281
  5
1283
331
1282
  5
1284
331
1283
  5
1285
331
1284
  5
1286
331
1285
  5
1287
331
1286
  5
1288
331
1287
  5
1289
331
1288
  5
128A
331
1289
  5
128B
331
128A
  5
128C
331
128B
  5
128D
331
128C
  5
128E
331
128D
  5
128F
331
128E
  5
1290
331
128F
  5
1291
331
1290
  5
1292
331
1291
  5
1293
331
1292
  5
1295
331
1293
  5
1297
331
1295
  5
1299
331
1297
  5
129A
331
1299
  5
129B
331
129A
  5
129C
331
129B
  5
129D
331
129C
  5
129E
331
129D
  5
129F
331
129E
  5
12A1
331
129F
  5
12A3
331
12A1
  5
12A4
331
12A3
  5
12A5
331
12A4
  5
12A6
331
12A5
  5
12A7
331
12A6
  5
12A8
331
12A7
  5
12A9
331
12A8
  5
12AA
331
12A9
  5
12AB
331
12AA
  5
12AC
331
12AB
  5
12AD
331
12AC
  5
12AE
331
12AD
  5
12AF
331
12AE
  5
12B0
331
12B0
  5
1098
  0
XRECORD
  5
12EE
102
{ACAD_REACTORS
330
12ED
102
}
330
12ED
100
AcDbXrecord
280
     1
102
SHADEPLOT
 70
     0
  0
XRECORD
  5
12F0
102
{ACAD_REACTORS
330
12EF
102
}
330
12EF
100
AcDbXrecord
280
     1
102
SHADEPLOT
 70
     0
  0
XRECORD
  5
1331
102
{ACAD_REACTORS
330
1330
102
}
330
1330
100
AcDbXrecord
280
     1
 40
14093.0
  1
{\W0.651042;９}
  0
XRECORD
  5
1333
102
{ACAD_REACTORS
330
1332
102
}
330
1332
100
AcDbXrecord
280
     1
 40
25228.0
  1
{\W0.651042;１３}
  0
XRECORD
  5
1335
102
{ACAD_REACTORS
330
1334
102
}
330
1334
100
AcDbXrecord
280
     1
 40
25306.0
  1
{\W0.651042;１６}
  0
XRECORD
  5
1337
102
{ACAD_REACTORS
330
1336
102
}
330
1336
100
AcDbXrecord
280
     1
 40
102802.0
  1
{\W0.651042;　Ｒｃ１／４}
  0
XRECORD
  5
1339
102
{ACAD_REACTORS
330
1338
102
}
330
1338
100
AcDbXrecord
280
     1
 40
161157.0
  1
{\W0.651042;（Ａｉｒ　ｉｎ）}
  0
XRECORD
  5
133A
102
{ACAD_REACTORS
330
4C0
102
}
330
4C0
100
AcDbXrecord
280
     1
 40
466688.0
  1
{\W0.651042;２－\U+2205８　Ｎｙｌｏｎ　ｔｕｂｅ}
  0
XRECORD
  5
133C
102
{ACAD_REACTORS
330
133B
102
}
330
133B
100
AcDbXrecord
280
     1
 40
58097.0
  1
{\W0.651042;Ｇ１／２}
  0
XRECORD
  5
12F2
102
{ACAD_REACTORS
330
12F1
102
}
330
12F1
100
AcDbXrecord
280
     1
102
SHADEPLOT
 70
     0
  0
XRECORD
  5
12F4
102
{ACAD_REACTORS
330
12F3
102
}
330
12F3
100
AcDbXrecord
280
     1
102
SHADEPLOT
 70
     0
  0
ACDBDETAILVIEWSTYLE
  5
12BF
102
{ACAD_XDICTIONARY
360
133F
102
}
102
{ACAD_REACTORS
330
3F3
102
}
330
3F3
100
AcDbModelDocViewStyle
 70
     0
  3
Imperial24
290
     0
100
AcDbDetailViewStyle
 70
     0
 71
     0
 90
        3
 71
     1
340
11
 40
0.24
340
0
 40
0.24
300

 40
0.36
280
     3
 71
     2
340
16
 90
       25
 71
     3
340
11
 40
0.24
 90
        1
 40
0.75
 90
        1
300
%<\AcVar ViewType \f "%tc1">% %<\AcVar ViewDetailId>%\PSCALE %<\AcVar ViewScale \f "%sn">%
 71
     4
340
16
 90
       25
340
16
 90
       25
280
     0
  0
ACDBDETAILVIEWSTYLE
  5
3F4
102
{ACAD_XDICTIONARY
360
132E
102
}
102
{ACAD_REACTORS
330
3F3
102
}
330
3F3
100
AcDbModelDocViewStyle
 70
     0
  3
Metric50
290
     0
100
AcDbDetailViewStyle
 70
     0
 71
     0
 90
        3
 71
     1
340
11
 40
5.0
340
0
 40
5.0
300

 40
0.0
280
     1
 71
     2
340
16
 90
       25
 71
     3
340
11
 40
5.0
 90
        0
 40
15.0
 90
        1
300
%<\AcVar ViewDetailId>% (%<\AcVar ViewScale \f "%sn">%)
 71
     4
340
16
 90
       25
340
16
 90
       25
280
     0
  0
LAYOUT
  5
22
102
{ACAD_XDICTIONARY
360
12E7
102
}
102
{ACAD_REACTORS
330
1A
102
}
330
1A
100
AcDbPlotSettings
  1

  2
none_device
  4
ANSI_A_(8.50_x_11.00_Inches)
  6

 40
6.349999904632568
 41
19.04999923706055
 42
6.350006103515625
 43
19.04998779296875
 44
215.8999938964844
 45
279.3999938964844
 46
0.0
 47
0.0
 48
0.0
 49
0.0
140
0.0
141
0.0
142
1.0
143
78.436453180766
 70
 11952
 72
     0
 73
     1
 74
     0
  7

 75
     0
147
0.0127491741332998
148
0.0
149
0.0
100
AcDbLayout
  1
Model
 70
     1
 71
     0
 10
0.0
 20
0.0
 11
12.0
 21
9.0
 12
0.0
 22
0.0
 32
0.0
 14
0.0
 24
0.0
 34
0.0
 15
0.0
 25
0.0
 35
0.0
146
0.0
 13
0.0
 23
0.0
 33
0.0
 16
1.0
 26
0.0
 36
0.0
 17
0.0
 27
1.0
 37
0.0
 76
     0
330
1F
331
3A6
  0
LAYOUT
  5
51
102
{ACAD_XDICTIONARY
360
12E9
102
}
102
{ACAD_REACTORS
330
1A
102
}
330
1A
100
AcDbPlotSettings
  1

  2
none_device
  4
Letter_(8.50_x_11.00_Inches)
  6

 40
6.349999904632568
 41
6.349999904632568
 42
6.350006103515625
 43
6.350006103515625
 44
215.8999938964844
 45
279.3999938964844
 46
0.0
 47
0.0
 48
0.0
 49
0.0
140
0.0
141
0.0
142
1.0
143
1.0
 70
   688
 72
     1
 73
     1
 74
     5
  7

 75
    16
147
1.0
148
0.0
149
0.0
100
AcDbLayout
  1
\U+FF9A\U+FF72\U+FF71\U+FF73\U+FF841
 70
     1
 71
     1
 10
-6.350006103515625
 20
-6.349999904632568
 11
273.0499877929688
 21
209.5499939918518
 12
0.0
 22
0.0
 32
0.0
 14
26.66076962115563
 24
20.31135699206658
 34
-0.0015258207003583
 15
240.039213369355
 25
182.8886381005154
 35
0.0000000349246037
146
0.0
 13
0.0
 23
0.0
 33
0.0
 16
1.0
 26
0.0
 36
0.0
 17
0.0
 27
1.0
 37
0.0
 76
     0
330
50
331
6B
  0
LAYOUT
  5
56
102
{ACAD_XDICTIONARY
360
12EB
102
}
102
{ACAD_REACTORS
330
1A
102
}
330
1A
100
AcDbPlotSettings
  1

  2
none_device
  4
Letter_(8.50_x_11.00_Inches)
  6

 40
6.349999904632568
 41
6.349999904632568
 42
6.350006103515625
 43
6.350006103515625
 44
215.8999938964844
 45
279.3999938964844
 46
0.0
 47
0.0
 48
0.0
 49
0.0
140
0.0
141
0.0
142
1.0
143
1.0
 70
   688
 72
     1
 73
     1
 74
     5
  7

 75
    16
147
1.0
148
0.0
149
0.0
100
AcDbLayout
  1
\U+FF9A\U+FF72\U+FF71\U+FF73\U+FF842
 70
     1
 71
     2
 10
-6.350006103515625
 20
-6.349999904632568
 11
273.0499877929688
 21
209.5499939918518
 12
0.0
 22
0.0
 32
0.0
 14
26.66076962115563
 24
20.31135699206658
 34
-0.0015258207003583
 15
240.039213369355
 25
182.8886381005154
 35
0.0000000349246037
146
0.0
 13
0.0
 23
0.0
 33
0.0
 16
1.0
 26
0.0
 36
0.0
 17
0.0
 27
1.0
 37
0.0
 76
     0
330
55
331
71
  0
MATERIAL
  5
3B1
102
{ACAD_XDICTIONARY
360
3B2
102
}
102
{ACAD_REACTORS
330
3A8
102
}
330
3A8
100
AcDbMaterial
  1
ByBlock
 72
     0
 43
0.0008202099737533
 43
0.0
 43
0.0
 43
0.0
 43
0.0
 43
0.0008202099737533
 43
0.0
 43
0.0
 43
0.0
 43
0.0
 43
1.0
 43
0.0
 43
0.0
 43
0.0
 43
0.0
 43
1.0
 77
     0
 47
0.0008202099737533
 47
0.0
 47
0.0
 47
0.0
 47
0.0
 47
0.0008202099737533
 47
0.0
 47
0.0
 47
0.0
 47
0.0
 47
1.0
 47
0.0
 47
0.0
 47
0.0
 47
0.0
 47
1.0
171
     0
 49
0.0008202099737533
 49
0.0
 49
0.0
 49
0.0
 49
0.0
 49
0.0008202099737533
 49
0.0
 49
0.0
 49
0.0
 49
0.0
 49
1.0
 49
0.0
 49
0.0
 49
0.0
 49
0.0
 49
1.0
175
     0
142
0.0008202099737533
142
0.0
142
0.0
142
0.0
142
0.0
142
0.0008202099737533
142
0.0
142
0.0
142
0.0
142
0.0
142
1.0
142
0.0
142
0.0
142
0.0
142
0.0
142
1.0
179
     0
144
0.0008202099737533
144
0.0
144
0.0
144
0.0
144
0.0
144
0.0008202099737533
144
0.0
144
0.0
144
0.0
144
0.0
144
1.0
144
0.0
144
0.0
144
0.0
144
0.0
144
1.0
147
0.0008202099737533
147
0.0
147
0.0
147
0.0
147
0.0
147
0.0008202099737533
147
0.0
147
0.0
147
0.0
147
0.0
147
1.0
147
0.0
147
0.0
147
0.0
147
0.0
147
1.0
  0
MATERIAL
  5
3A9
102
{ACAD_XDICTIONARY
360
3AA
102
}
102
{ACAD_REACTORS
330
3A8
102
}
330
3A8
100
AcDbMaterial
  1
ByLayer
 72
     0
 43
0.0008202099737533
 43
0.0
 43
0.0
 43
0.0
 43
0.0
 43
0.0008202099737533
 43
0.0
 43
0.0
 43
0.0
 43
0.0
 43
1.0
 43
0.0
 43
0.0
 43
0.0
 43
0.0
 43
1.0
 77
     0
 47
0.0008202099737533
 47
0.0
 47
0.0
 47
0.0
 47
0.0
 47
0.0008202099737533
 47
0.0
 47
0.0
 47
0.0
 47
0.0
 47
1.0
 47
0.0
 47
0.0
 47
0.0
 47
0.0
 47
1.0
171
     0
 49
0.0008202099737533
 49
0.0
 49
0.0
 49
0.0
 49
0.0
 49
0.0008202099737533
 49
0.0
 49
0.0
 49
0.0
 49
0.0
 49
1.0
 49
0.0
 49
0.0
 49
0.0
 49
0.0
 49
1.0
175
     0
142
0.0008202099737533
142
0.0
142
0.0
142
0.0
142
0.0
142
0.0008202099737533
142
0.0
142
0.0
142
0.0
142
0.0
142
1.0
142
0.0
142
0.0
142
0.0
142
0.0
142
1.0
179
     0
144
0.0008202099737533
144
0.0
144
0.0
144
0.0
144
0.0
144
0.0008202099737533
144
0.0
144
0.0
144
0.0
144
0.0
144
1.0
144
0.0
144
0.0
144
0.0
144
0.0
144
1.0
147
0.0008202099737533
147
0.0
147
0.0
147
0.0
147
0.0
147
0.0008202099737533
147
0.0
147
0.0
147
0.0
147
0.0
147
1.0
147
0.0
147
0.0
147
0.0
147
0.0
147
1.0
  0
MATERIAL
  5
3B9
102
{ACAD_XDICTIONARY
360
3BA
102
}
102
{ACAD_REACTORS
330
3A8
102
}
330
3A8
100
AcDbMaterial
  1
Global
 72
     0
 43
0.0008202099737533
 43
0.0
 43
0.0
 43
0.0
 43
0.0
 43
0.0008202099737533
 43
0.0
 43
0.0
 43
0.0
 43
0.0
 43
1.0
 43
0.0
 43
0.0
 43
0.0
 43
0.0
 43
1.0
 77
     0
 47
0.0008202099737533
 47
0.0
 47
0.0
 47
0.0
 47
0.0
 47
0.0008202099737533
 47
0.0
 47
0.0
 47
0.0
 47
0.0
 47
1.0
 47
0.0
 47
0.0
 47
0.0
 47
0.0
 47
1.0
171
     0
 49
0.0008202099737533
 49
0.0
 49
0.0
 49
0.0
 49
0.0
 49
0.0008202099737533
 49
0.0
 49
0.0
 49
0.0
 49
0.0
 49
1.0
 49
0.0
 49
0.0
 49
0.0
 49
0.0
 49
1.0
175
     0
142
0.0008202099737533
142
0.0
142
0.0
142
0.0
142
0.0
142
0.0008202099737533
142
0.0
142
0.0
142
0.0
142
0.0
142
1.0
142
0.0
142
0.0
142
0.0
142
0.0
142
1.0
179
     0
144
0.0008202099737533
144
0.0
144
0.0
144
0.0
144
0.0
144
0.0008202099737533
144
0.0
144
0.0
144
0.0
144
0.0
144
1.0
144
0.0
144
0.0
144
0.0
144
0.0
144
1.0
147
0.0008202099737533
147
0.0
147
0.0
147
0.0
147
0.0
147
0.0008202099737533
147
0.0
147
0.0
147
0.0
147
0.0
147
1.0
147
0.0
147
0.0
147
0.0
147
0.0
147
1.0
  0
MLEADERSTYLE
  5
3F0
102
{ACAD_XDICTIONARY
360
132A
102
}
102
{ACAD_REACTORS
330
3EF
102
}
330
3EF
100
AcDbMLeaderStyle
170
     2
171
     1
172
     0
 90
        2
 40
0.0
 41
0.0
173
     1
 91
-1056964608
340
14
 92
       -2
290
     1
 42
2.0
291
     1
 43
0.36
  3
Standard
 44
4.0
300

342
11
174
     1
178
     6
175
     1
176
     0
 93
-1056964608
 45
4.0
292
     0
297
     0
 46
4.0
 94
-1056964608
 47
1.0
 49
1.0
140
1.0
293
     1
141
0.0
294
     1
177
     0
142
1.0
295
     0
296
     0
143
0.125
1001
ACAD_MLEADERVER
1070
     2
  0
MLINESTYLE
  5
18
102
{ACAD_REACTORS
330
17
102
}
330
17
100
AcDbMlineStyle
  2
STANDARD
 70
     0
  3

 62
   256
 51
90.0
 52
90.0
 71
     2
 49
0.5
 62
   256
  6
BYLAYER
 49
-0.5
 62
   256
  6
BYLAYER
  0
ACDBPLACEHOLDER
  5
F
102
{ACAD_REACTORS
330
E
102
}
330
E
  0
SCALE
  5
3DE
102
{ACAD_REACTORS
330
3DD
102
}
330
3DD
100
AcDbScale
 70
     0
300
1:1
140
1.0
141
1.0
290
     1
  0
SCALE
  5
3DF
102
{ACAD_REACTORS
330
3DD
102
}
330
3DD
100
AcDbScale
 70
     0
300
1:2
140
1.0
141
2.0
290
     0
  0
SCALE
  5
3E0
102
{ACAD_REACTORS
330
3DD
102
}
330
3DD
100
AcDbScale
 70
     0
300
1:4
140
1.0
141
4.0
290
     0
  0
SCALE
  5
3E1
102
{ACAD_REACTORS
330
3DD
102
}
330
3DD
100
AcDbScale
 70
     0
300
1:5
140
1.0
141
5.0
290
     0
  0
SCALE
  5
3E2
102
{ACAD_REACTORS
330
3DD
102
}
330
3DD
100
AcDbScale
 70
     0
300
1:8
140
1.0
141
8.0
290
     0
  0
SCALE
  5
3E3
102
{ACAD_REACTORS
330
3DD
102
}
330
3DD
100
AcDbScale
 70
     0
300
1:10
140
1.0
141
10.0
290
     0
  0
SCALE
  5
3E4
102
{ACAD_REACTORS
330
3DD
102
}
330
3DD
100
AcDbScale
 70
     0
300
1:16
140
1.0
141
16.0
290
     0
  0
SCALE
  5
3E5
102
{ACAD_REACTORS
330
3DD
102
}
330
3DD
100
AcDbScale
 70
     0
300
1:20
140
1.0
141
20.0
290
     0
  0
SCALE
  5
3E6
102
{ACAD_REACTORS
330
3DD
102
}
330
3DD
100
AcDbScale
 70
     0
300
1:30
140
1.0
141
30.0
290
     0
  0
SCALE
  5
3E7
102
{ACAD_REACTORS
330
3DD
102
}
330
3DD
100
AcDbScale
 70
     0
300
1:40
140
1.0
141
40.0
290
     0
  0
SCALE
  5
3E8
102
{ACAD_REACTORS
330
3DD
102
}
330
3DD
100
AcDbScale
 70
     0
300
1:50
140
1.0
141
50.0
290
     0
  0
SCALE
  5
3E9
102
{ACAD_REACTORS
330
3DD
102
}
330
3DD
100
AcDbScale
 70
     0
300
1:100
140
1.0
141
100.0
290
     0
  0
SCALE
  5
3EA
102
{ACAD_REACTORS
330
3DD
102
}
330
3DD
100
AcDbScale
 70
     0
300
2:1
140
2.0
141
1.0
290
     0
  0
SCALE
  5
3EB
102
{ACAD_REACTORS
330
3DD
102
}
330
3DD
100
AcDbScale
 70
     0
300
4:1
140
4.0
141
1.0
290
     0
  0
SCALE
  5
3EC
102
{ACAD_REACTORS
330
3DD
102
}
330
3DD
100
AcDbScale
 70
     0
300
8:1
140
8.0
141
1.0
290
     0
  0
SCALE
  5
3ED
102
{ACAD_REACTORS
330
3DD
102
}
330
3DD
100
AcDbScale
 70
     0
300
10:1
140
10.0
141
1.0
290
     0
  0
SCALE
  5
3EE
102
{ACAD_REACTORS
330
3DD
102
}
330
3DD
100
AcDbScale
 70
     0
300
100:1
140
100.0
141
1.0
290
     0
  0
ACDBSECTIONVIEWSTYLE
  5
12BE
102
{ACAD_XDICTIONARY
360
133D
102
}
102
{ACAD_REACTORS
330
3F1
102
}
330
3F1
100
AcDbModelDocViewStyle
 70
     0
  3
Imperial24
290
     0
100
AcDbSectionViewStyle
 70
     0
 71
     0
 90
       78
 71
     1
340
11
 40
0.24
340
0
340
0
 40
0.24
300
I, O, Q, S, X, Z
 40
0.48
 90
        3
 40
0.18
 90
        1
 71
     2
340
16
 90
       25
340
16
 90
       50
 40
0.24
 40
0.0
 40
0.24
 71
     3
340
11
 40
0.24
 90
        1
 40
0.75
 90
        1
300
%<\AcVar ViewType \f "%tc1">% %<\AcVar ViewSectionStartId>%-%<\AcVar ViewSectionEndId>%\PSCALE %<\AcVar ViewScale \f "%sn">%
 71
     4
300
ANSI31
 40
1.0
 90
        0
290
     0
290
     0
 90
        6
 40
0.0
 40
1.570796326794896
 40
0.2617993877991494
 40
1.308996938995747
 40
-0.2617993877991494
 40
1.832595714594046
  0
ACDBSECTIONVIEWSTYLE
  5
3F2
102
{ACAD_XDICTIONARY
360
132C
102
}
102
{ACAD_REACTORS
330
3F1
102
}
330
3F1
100
AcDbModelDocViewStyle
 70
     0
  3
Metric50
290
     0
100
AcDbSectionViewStyle
 70
     0
 71
     0
 90
      102
 71
     1
340
11
 40
5.0
340
0
340
0
 40
5.0
300
I, O, Q, S, X, Z
 40
10.0
 90
        0
 40
2.5
 90
        0
 71
     2
340
16
 90
       25
340
16
 90
       50
 40
5.0
 40
2.5
 40
5.0
 71
     3
340
11
 40
5.0
 90
        0
 40
15.0
 90
        1
300
%<\AcVar ViewSectionStartId>%-%<\AcVar ViewSectionEndId>% (%<\AcVar ViewScale \f "%sn">%)
 71
     4
300
ANSI31
 40
1.0
 90
        0
290
     0
290
     0
 90
        6
 40
0.0
 40
1.570796326794896
 40
0.2617993877991494
 40
1.308996938995747
 40
-0.2617993877991494
 40
1.832595714594046
  0
TABLESTYLE
  5
3DC
102
{ACAD_XDICTIONARY
360
12DB
102
}
102
{ACAD_REACTORS
330
3DB
102
}
330
3DB
100
AcDbTableStyle
  3
Standard
 70
     0
 71
     0
 40
1.5
 41
1.5
280
     0
281
     0
  7
Standard
140
4.5
170
     2
 62
     0
 63
     7
283
     0
274
    -2
284
     1
 64
     0
275
    -2
285
     1
 65
     0
276
    -2
286
     1
 66
     0
277
    -2
287
     1
 67
     0
278
    -2
288
     1
 68
     0
279
    -2
289
     1
 69
     0
  7
Standard
140
6.0
170
     5
 62
     0
 63
     7
283
     0
274
    -2
284
     1
 64
     0
275
    -2
285
     1
 65
     0
276
    -2
286
     1
 66
     0
277
    -2
287
     1
 67
     0
278
    -2
288
     1
 68
     0
279
    -2
289
     1
 69
     0
  7
Standard
140
4.5
170
     5
 62
     0
 63
     7
283
     0
274
    -2
284
     1
 64
     0
275
    -2
285
     1
 65
     0
276
    -2
286
     1
 66
     0
277
    -2
287
     1
 67
     0
278
    -2
288
     1
 68
     0
279
    -2
289
     1
 69
     0
  0
VISUALSTYLE
  5
3C7
102
{ACAD_XDICTIONARY
360
1302
102
}
102
{ACAD_REACTORS
330
3C1
102
}
330
3C1
100
AcDbVisualStyle
  2
2dWireframe
 70
     4
 71
     0
 72
     2
 73
     0
 90
        0
 40
-0.6
 41
-30.0
 62
     5
 63
     7
 74
     1
 91
        4
 64
     7
 65
   257
 75
     1
175
     1
 42
1.0
 92
        0
 66
   257
 43
1.0
 76
     1
 77
     6
 78
     2
 67
     7
 79
     5
170
     0
171
     0
290
     0
174
     0
 93
        1
 44
0.0
173
     0
291
     0
 45
0.0
1001
ACAD
1000
AcDbSavedByObjectVersion
1070
     0
  0
VISUALSTYLE
  5
3C6
102
{ACAD_XDICTIONARY
360
1300
102
}
102
{ACAD_REACTORS
330
3C1
102
}
330
3C1
100
AcDbVisualStyle
  2
Basic
 70
     7
 71
     1
 72
     0
 73
     1
 90
        0
 40
-0.6
 41
-30.0
 62
     5
 63
     7
 74
     0
 91
        4
 64
     7
 65
   257
 75
     1
175
     1
 42
1.0
 92
        8
 66
     7
 43
1.0
 76
     1
 77
     6
 78
     2
 67
     7
 79
     5
170
     0
171
     0
290
     0
174
     0
 93
        1
 44
0.0
173
     0
291
     1
 45
0.0
1001
ACAD
1000
AcDbSavedByObjectVersion
1070
     0
  0
VISUALSTYLE
  5
3CD
102
{ACAD_XDICTIONARY
360
130E
102
}
102
{ACAD_REACTORS
330
3C1
102
}
330
3C1
100
AcDbVisualStyle
  2
Brighten
 70
    12
 71
     2
 72
     2
 73
     0
 90
        0
 40
-0.6
 41
-30.0
 62
     5
 63
     7
 74
     1
 91
        4
 64
     7
 65
   257
 75
     1
175
     1
 42
1.0
 92
        8
 66
     7
 43
1.0
 76
     1
 77
     6
 78
     2
 67
     7
 79
     5
170
     0
171
     0
290
     0
174
     0
 93
        1
 44
50.0
173
     0
291
     1
 45
0.0
1001
ACAD
1000
AcDbSavedByObjectVersion
1070
     0
  0
VISUALSTYLE
  5
3D1
102
{ACAD_XDICTIONARY
360
1316
102
}
102
{ACAD_REACTORS
330
3C1
102
}
330
3C1
100
AcDbVisualStyle
  2
ColorChange
 70
    16
 71
     2
 72
     2
 73
     3
 90
        0
 40
-0.6
 41
-30.0
 62
     5
 63
     8
 74
     1
 91
        4
 64
     7
 65
   257
 75
     1
175
     1
 42
1.0
 92
        8
 66
     8
 43
1.0
 76
     1
 77
     6
 78
     2
 67
     7
 79
     5
170
     0
171
     0
290
     0
174
     0
 93
        1
 44
0.0
173
     0
291
     1
 45
0.0
1001
ACAD
1000
AcDbSavedByObjectVersion
1070
     0
  0
VISUALSTYLE
  5
3CA
102
{ACAD_XDICTIONARY
360
1308
102
}
102
{ACAD_REACTORS
330
3C1
102
}
330
3C1
100
AcDbVisualStyle
  2
Conceptual
 70
     9
 71
     3
 72
     2
 73
     0
 90
        0
 40
-0.6
 41
-30.0
 62
     5
 63
     7
 74
     2
 91
        2
 64
     7
 65
   257
 75
     1
175
     1
 42
179.0
 92
        8
 66
     7
 43
1.0
 76
     1
 77
     6
 78
     2
 67
     7
 79
     3
170
     0
171
     0
290
     0
174
     0
 93
        1
 44
0.0
173
     0
291
     0
 45
0.0
1001
ACAD
1000
AcDbSavedByObjectVersion
1070
     0
  0
VISUALSTYLE
  5
3CC
102
{ACAD_XDICTIONARY
360
130C
102
}
102
{ACAD_REACTORS
330
3C1
102
}
330
3C1
100
AcDbVisualStyle
  2
Dim
 70
    11
 71
     2
 72
     2
 73
     0
 90
        0
 40
-0.6
 41
-30.0
 62
     5
 63
     7
 74
     1
 91
        4
 64
     7
 65
   257
 75
     1
175
     1
 42
1.0
 92
        8
 66
     7
 43
1.0
 76
     1
 77
     6
 78
     2
 67
     7
 79
     5
170
     0
171
     0
290
     0
174
     0
 93
        1
 44
-50.0
173
     0
291
     1
 45
0.0
1001
ACAD
1000
AcDbSavedByObjectVersion
1070
     0
  0
VISUALSTYLE
  5
3D9
102
{ACAD_XDICTIONARY
360
1326
102
}
102
{ACAD_REACTORS
330
3C1
102
}
330
3C1
100
AcDbVisualStyle
  2
EdgeColorOff
 70
    22
 71
     2
 72
     2
 73
     0
 90
        0
 40
-0.6
 41
-30.0
 62
     5
 63
     7
 74
     1
 91
        4
 64
     7
 65
   257
 75
     1
175
     1
 42
1.0
 92
        8
 66
     7
 43
1.0
 76
     1
 77
     6
 78
     2
 67
     7
 79
     5
170
     0
171
     0
290
     0
174
     0
 93
        1
 44
0.0
173
     0
291
     1
 45
0.0
1001
ACAD
1000
AcDbSavedByObjectVersion
1070
     0
  0
VISUALSTYLE
  5
3D0
102
{ACAD_XDICTIONARY
360
1314
102
}
102
{ACAD_REACTORS
330
3C1
102
}
330
3C1
100
AcDbVisualStyle
  2
Facepattern
 70
    15
 71
     2
 72
     2
 73
     0
 90
        0
 40
-0.6
 41
-30.0
 62
     5
 63
     7
 74
     1
 91
        4
 64
     7
 65
   257
 75
     1
175
     1
 42
1.0
 92
        8
 66
     7
 43
1.0
 76
     1
 77
     6
 78
     2
 67
     7
 79
     5
170
     0
171
     0
290
     0
174
     0
 93
        1
 44
0.0
173
     0
291
     1
 45
0.0
1001
ACAD
1000
AcDbSavedByObjectVersion
1070
     0
  0
VISUALSTYLE
  5
3C2
102
{ACAD_XDICTIONARY
360
12F8
102
}
102
{ACAD_REACTORS
330
3C1
102
}
330
3C1
100
AcDbVisualStyle
  2
Flat
 70
     0
 71
     2
 72
     1
 73
     1
 90
        2
 40
-0.6
 41
30.0
 62
     5
 63
     7
 74
     0
 91
        0
 64
     7
 65
   257
 75
     1
175
     1
 42
1.0
 92
        8
 66
     7
 43
1.0
 76
     1
 77
     6
 78
     2
 67
     7
 79
     5
170
     0
171
     0
290
     0
174
     0
 93
       13
 44
0.0
173
     0
291
     1
 45
0.0
1001
ACAD
1000
AcDbSavedByObjectVersion
1070
     0
  0
VISUALSTYLE
  5
3C3
102
{ACAD_XDICTIONARY
360
12FA
102
}
102
{ACAD_REACTORS
330
3C1
102
}
330
3C1
100
AcDbVisualStyle
  2
FlatWithEdges
 70
     1
 71
     2
 72
     1
 73
     1
 90
        2
 40
-0.6
 41
30.0
 62
     5
 63
     7
 74
     1
 91
        0
 64
     7
 65
   257
 75
     1
175
     1
 42
1.0
 92
        0
 66
   257
 43
1.0
 76
     1
 77
     6
 78
     2
 67
     7
 79
     5
170
     0
171
     0
290
     0
174
     0
 93
       13
 44
0.0
173
     0
291
     1
 45
0.0
1001
ACAD
1000
AcDbSavedByObjectVersion
1070
     0
  0
VISUALSTYLE
  5
3C4
102
{ACAD_XDICTIONARY
360
12FC
102
}
102
{ACAD_REACTORS
330
3C1
102
}
330
3C1
100
AcDbVisualStyle
  2
Gouraud
 70
     2
 71
     2
 72
     2
 73
     1
 90
        2
 40
-0.6
 41
30.0
 62
     5
 63
     7
 74
     0
 91
        0
 64
     7
 65
   257
 75
     1
175
     1
 42
1.0
 92
        0
 66
     7
 43
1.0
 76
     1
 77
     6
 78
     2
 67
     7
 79
     5
170
     0
171
     0
290
     0
174
     0
 93
       13
 44
0.0
173
     0
291
     1
 45
0.0
1001
ACAD
1000
AcDbSavedByObjectVersion
1070
     0
  0
VISUALSTYLE
  5
3C5
102
{ACAD_XDICTIONARY
360
12FE
102
}
102
{ACAD_REACTORS
330
3C1
102
}
330
3C1
100
AcDbVisualStyle
  2
GouraudWithEdges
 70
     3
 71
     2
 72
     2
 73
     1
 90
        2
 40
-0.6
 41
30.0
 62
     5
 63
     7
 74
     1
 91
        0
 64
     7
 65
   257
 75
     1
175
     1
 42
1.0
 92
        0
 66
   257
 43
1.0
 76
     1
 77
     6
 78
     2
 67
     7
 79
     5
170
     0
171
     0
290
     0
174
     0
 93
       13
 44
0.0
173
     0
291
     1
 45
0.0
1001
ACAD
1000
AcDbSavedByObjectVersion
1070
     0
  0
VISUALSTYLE
  5
3C9
102
{ACAD_XDICTIONARY
360
1306
102
}
102
{ACAD_REACTORS
330
3C1
102
}
330
3C1
100
AcDbVisualStyle
  2
Hidden
 70
     6
 71
     1
 72
     2
 73
     2
 90
        0
 40
-0.6
 41
-30.0
 62
     5
 63
     7
 74
     2
 91
        2
 64
     7
 65
   257
 75
     2
175
     1
 42
40.0
 92
        0
 66
   257
 43
1.0
 76
     1
 77
     6
 78
     2
 67
     7
 79
     3
170
     0
171
     0
290
     0
174
     0
 93
        1
 44
0.0
173
     0
291
     0
 45
0.0
1001
ACAD
1000
AcDbSavedByObjectVersion
1070
     0
  0
VISUALSTYLE
  5
3D7
102
{ACAD_XDICTIONARY
360
1322
102
}
102
{ACAD_REACTORS
330
3C1
102
}
330
3C1
100
AcDbVisualStyle
  2
JitterOff
 70
    20
 71
     2
 72
     2
 73
     0
 90
        0
 40
-0.6
 41
-30.0
 62
     5
 63
     7
 74
     1
 91
        4
 64
     7
 65
   257
 75
     1
175
     1
 42
1.0
 92
       10
 66
     7
 43
1.0
 76
     1
 77
     6
 78
     2
 67
     7
 79
     5
170
     0
171
     0
290
     0
174
     0
 93
        1
 44
0.0
173
     0
291
     1
 45
0.0
1001
ACAD
1000
AcDbSavedByObjectVersion
1070
     0
  0
VISUALSTYLE
  5
3CF
102
{ACAD_XDICTIONARY
360
1312
102
}
102
{ACAD_REACTORS
330
3C1
102
}
330
3C1
100
AcDbVisualStyle
  2
Linepattern
 70
    14
 71
     2
 72
     2
 73
     0
 90
        0
 40
-0.6
 41
-30.0
 62
     5
 63
     7
 74
     1
 91
        4
 64
     7
 65
   257
 75
     7
175
     7
 42
1.0
 92
        8
 66
     7
 43
1.0
 76
     1
 77
     6
 78
     2
 67
     7
 79
     5
170
     0
171
     0
290
     0
174
     0
 93
        1
 44
0.0
173
     0
291
     1
 45
0.0
1001
ACAD
1000
AcDbSavedByObjectVersion
1070
     0
  0
VISUALSTYLE
  5
3D8
102
{ACAD_XDICTIONARY
360
1324
102
}
102
{ACAD_REACTORS
330
3C1
102
}
330
3C1
100
AcDbVisualStyle
  2
OverhangOff
 70
    21
 71
     2
 72
     2
 73
     0
 90
        0
 40
-0.6
 41
-30.0
 62
     5
 63
     7
 74
     1
 91
        4
 64
     7
 65
   257
 75
     1
175
     1
 42
1.0
 92
        9
 66
     7
 43
1.0
 76
     1
 77
     6
 78
     2
 67
     7
 79
     5
170
     0
171
     0
290
     0
174
     0
 93
        1
 44
0.0
173
     0
291
     1
 45
0.0
1001
ACAD
1000
AcDbSavedByObjectVersion
1070
     0
  0
VISUALSTYLE
  5
3CB
102
{ACAD_XDICTIONARY
360
130A
102
}
102
{ACAD_REACTORS
330
3C1
102
}
330
3C1
100
AcDbVisualStyle
  2
Realistic
 70
     8
 71
     2
 72
     3
 73
     0
 90
        2
 40
-0.6
 41
30.0
 62
     5
 63
     7
 74
     0
 91
        0
 64
     7
 65
   257
 75
     1
175
     1
 42
1.0
 92
        8
 66
   257
 43
1.0
 76
     1
 77
     6
 78
     2
 67
     7
 79
     3
170
     0
171
     0
290
     0
174
     0
 93
       13
 44
0.0
173
     0
291
     0
 45
0.0
1001
ACAD
1000
AcDbSavedByObjectVersion
1070
     0
  0
VISUALSTYLE
  5
3D6
102
{ACAD_XDICTIONARY
360
1320
102
}
102
{ACAD_REACTORS
330
3C1
102
}
330
3C1
100
AcDbVisualStyle
  2
Shaded
 70
    27
 71
     2
 72
     2
 73
     1
 90
        2
 40
-0.6
 41
30.0
 62
     5
 63
     7
 74
     0
 91
        4
 64
     7
 65
   257
 75
     1
175
     1
 42
1.0
 92
        8
 66
   257
 43
1.0
 76
     1
 77
     6
 78
     2
 67
     8
 79
     3
170
     0
171
     0
290
     0
174
     0
 93
        5
 44
0.0
173
     0
291
     0
 45
0.0
1001
ACAD
1000
AcDbSavedByObjectVersion
1070
     0
  0
VISUALSTYLE
  5
3D5
102
{ACAD_XDICTIONARY
360
131E
102
}
102
{ACAD_REACTORS
330
3C1
102
}
330
3C1
100
AcDbVisualStyle
  2
Shaded with edges
 70
    26
 71
     2
 72
     2
 73
     1
 90
        2
 40
-0.6
 41
30.0
 62
     5
 63
     7
 74
     1
 91
        2
 64
     7
 65
   257
 75
     2
175
     1
 42
1.0
 92
        8
 66
   257
 43
1.0
 76
     1
 77
     6
 78
     2
 67
     7
 79
     3
170
     0
171
     0
290
     0
174
     0
 93
        5
 44
0.0
173
     0
291
     0
 45
0.0
1001
ACAD
1000
AcDbSavedByObjectVersion
1070
     0
  0
VISUALSTYLE
  5
3D2
102
{ACAD_XDICTIONARY
360
1318
102
}
102
{ACAD_REACTORS
330
3C1
102
}
330
3C1
100
AcDbVisualStyle
  2
Shades of Gray
 70
    23
 71
     2
 72
     2
 73
     3
 90
        0
 40
-0.6
 41
-30.0
 62
     5
 63
     7
 74
     2
 91
        2
 64
     7
 65
     7
 75
     1
175
     1
 42
40.0
 92
        8
 66
     7
 43
1.0
 76
     1
 77
     6
 78
     2
 67
     7
 79
     3
170
     0
171
     0
290
     0
174
     0
 93
        1
 44
0.0
173
     0
291
     0
 45
0.0
1001
ACAD
1000
AcDbSavedByObjectVersion
1070
     0
  0
VISUALSTYLE
  5
3D3
102
{ACAD_XDICTIONARY
360
131A
102
}
102
{ACAD_REACTORS
330
3C1
102
}
330
3C1
100
AcDbVisualStyle
  2
Sketchy
 70
    24
 71
     1
 72
     2
 73
     2
 90
        0
 40
-0.6
 41
-30.0
 62
     5
 63
     7
 74
     2
 91
        2
 64
     7
 65
     7
 75
     1
175
     1
 42
40.0
 92
       11
 66
     7
 43
1.0
 76
     1
 77
     6
 78
     2
 67
     7
 79
     6
170
     0
171
     0
290
     0
174
     0
 93
        1
 44
0.0
173
     0
291
     0
 45
0.0
1001
ACAD
1000
AcDbSavedByObjectVersion
1070
     0
  0
VISUALSTYLE
  5
3CE
102
{ACAD_XDICTIONARY
360
1310
102
}
102
{ACAD_REACTORS
330
3C1
102
}
330
3C1
100
AcDbVisualStyle
  2
Thicken
 70
    13
 71
     2
 72
     2
 73
     0
 90
        0
 40
-0.6
 41
-30.0
 62
     5
 63
     7
 74
     1
 91
        4
 64
     7
 65
   257
 75
     1
175
     1
 42
1.0
 92
       12
 66
     7
 43
1.0
 76
     1
 77
     6
 78
     2
 67
     7
 79
     5
170
     0
171
     0
290
     0
174
     0
 93
        1
 44
0.0
173
     0
291
     1
 45
0.0
1001
ACAD
1000
AcDbSavedByObjectVersion
1070
     0
  0
VISUALSTYLE
  5
3C8
102
{ACAD_XDICTIONARY
360
1304
102
}
102
{ACAD_REACTORS
330
3C1
102
}
330
3C1
100
AcDbVisualStyle
  2
Wireframe
 70
     5
 71
     0
 72
     2
 73
     0
 90
        0
 40
-0.6
 41
-30.0
 62
     5
 63
     7
 74
     1
 91
        4
 64
     7
 65
   257
 75
     1
175
     1
 42
1.0
 92
        0
 66
   257
 43
1.0
 76
     1
 77
     6
 78
     2
 67
     7
 79
     3
170
     0
171
     0
290
     0
174
     0
 93
        1
 44
0.0
173
     0
291
     0
 45
0.0
1001
ACAD
1000
AcDbSavedByObjectVersion
1070
     0
  0
VISUALSTYLE
  5
3D4
102
{ACAD_XDICTIONARY
360
131C
102
}
102
{ACAD_REACTORS
330
3C1
102
}
330
3C1
100
AcDbVisualStyle
  2
X-Ray
 70
    25
 71
     2
 72
     2
 73
     1
 90
        1
 40
0.5
 41
-30.0
 62
     5
 63
     7
 74
     1
 91
        0
 64
     7
 65
   257
 75
     1
175
     1
 42
1.0
 92
        8
 66
     7
 43
1.0
 76
     1
 77
     6
 78
     2
 67
     7
 79
     3
170
     0
171
     0
290
     0
174
     0
 93
       13
 44
0.0
173
     0
291
     0
 45
0.0
1001
ACAD
1000
AcDbSavedByObjectVersion
1070
     0
  0
DICTIONARYVAR
  5
1263
102
{ACAD_REACTORS
330
5E
102
}
330
5E
100
DictionaryVariables
280
     0
  1
1:1
  0
DICTIONARYVAR
  5
125F
102
{ACAD_REACTORS
330
5E
102
}
330
5E
100
DictionaryVariables
280
     0
  1
STANDARD
  0
DICTIONARYVAR
  5
125E
102
{ACAD_REACTORS
330
5E
102
}
330
5E
100
DictionaryVariables
280
     0
  1
STANDARD
  0
DICTIONARYVAR
  5
1260
102
{ACAD_REACTORS
330
5E
102
}
330
5E
100
DictionaryVariables
280
     0
  1
Metric50
  0
DICTIONARYVAR
  5
1261
102
{ACAD_REACTORS
330
5E
102
}
330
5E
100
DictionaryVariables
280
     0
  1
Metric50
  0
DICTIONARYVAR
  5
5F
102
{ACAD_REACTORS
330
5E
102
}
330
5E
100
DictionaryVariables
280
     0
  1
2
  0
DICTIONARYVAR
  5
63
102
{ACAD_REACTORS
330
5E
102
}
330
5E
100
DictionaryVariables
280
     0
  1
1
  0
DICTIONARYVAR
  5
12D9
102
{ACAD_REACTORS
330
5E
102
}
330
5E
100
DictionaryVariables
280
     0
  1
0
  0
DICTIONARYVAR
  5
1265
102
{ACAD_REACTORS
330
5E
102
}
330
5E
100
DictionaryVariables
280
     0
  1
1
  0
DICTIONARYVAR
  5
1266
102
{ACAD_REACTORS
330
5E
102
}
330
5E
100
DictionaryVariables
280
     0
  1
15
  0
DICTIONARYVAR
  5
1264
102
{ACAD_REACTORS
330
5E
102
}
330
5E
100
DictionaryVariables
280
     0
  1
0
  0
DICTIONARYVAR
  5
1262
102
{ACAD_REACTORS
330
5E
102
}
330
5E
100
DictionaryVariables
280
     0
  1
0
  0
DICTIONARYVAR
  5
12D8
102
{ACAD_REACTORS
330
5E
102
}
330
5E
100
DictionaryVariables
280
     0
  1
127
  0
DICTIONARYVAR
  5
12DA
102
{ACAD_REACTORS
330
5E
102
}
330
5E
100
DictionaryVariables
280
     0
  1
2
  0
DICTIONARY
  5
12E6
102
{ACAD_REACTORS
330
12E4
102
}
330
12E4
100
AcDbDictionary
281
     1
  0
DICTIONARY
  5
12E5
102
{ACAD_REACTORS
330
12E4
102
}
330
12E4
100
AcDbDictionary
281
     1
  3
1535604350064
350
12DF
  3
1535604350080
350
12E0
  3
1535604350096
350
12E1
  3
1535604350112
350
12E2
  3
1535604350128
350
12E3
  0
DICTIONARY
  5
133F
330
12BF
100
AcDbDictionary
280
     1
281
     1
  3
ACAD_XREC_ROUNDTRIP
360
1340
  0
DICTIONARY
  5
132E
330
3F4
100
AcDbDictionary
280
     1
281
     1
  3
ACAD_XREC_ROUNDTRIP
360
132F
  0
DICTIONARY
  5
12E7
330
22
100
AcDbDictionary
280
     1
281
     1
  3
ACAD_XREC_ROUNDTRIP
360
12E8
  0
DICTIONARY
  5
12E9
330
51
100
AcDbDictionary
280
     1
281
     1
  3
ACAD_XREC_ROUNDTRIP
360
12EA
  0
DICTIONARY
  5
12EB
330
56
100
AcDbDictionary
280
     1
281
     1
  3
ACAD_XREC_ROUNDTRIP
360
12EC
  0
DICTIONARY
  5
3B2
330
3B1
100
AcDbDictionary
280
     1
281
     1
  3
ACAD_XREC_ROUNDTRIP
360
12F6
  3
BUMPTILE
360
3B4
  3
DIFFUSETILE
360
3B3
  3
OPACITYTILE
360
3B7
  3
REFLECTIONTILE
360
3B6
  3
REFRACTIONTILE
360
3B8
  3
SPECULARTILE
360
3B5
  0
DICTIONARY
  5
3AA
330
3A9
100
AcDbDictionary
280
     1
281
     1
  3
ACAD_XREC_ROUNDTRIP
360
12F5
  3
BUMPTILE
360
3AC
  3
DIFFUSETILE
360
3AB
  3
OPACITYTILE
360
3AF
  3
REFLECTIONTILE
360
3AE
  3
REFRACTIONTILE
360
3B0
  3
SPECULARTILE
360
3AD
  0
DICTIONARY
  5
3BA
330
3B9
100
AcDbDictionary
280
     1
281
     1
  3
ACAD_XREC_ROUNDTRIP
360
12F7
  3
BUMPTILE
360
3BC
  3
DIFFUSETILE
360
3BB
  3
OPACITYTILE
360
3BF
  3
REFLECTIONTILE
360
3BE
  3
REFRACTIONTILE
360
3C0
  3
SPECULARTILE
360
3BD
  0
DICTIONARY
  5
132A
330
3F0
100
AcDbDictionary
280
     1
281
     1
  3
ACAD_XREC_ROUNDTRIP
360
132B
  0
DICTIONARY
  5
133D
330
12BE
100
AcDbDictionary
280
     1
281
     1
  3
ACAD_XREC_ROUNDTRIP
360
133E
  0
DICTIONARY
  5
132C
330
3F2
100
AcDbDictionary
280
     1
281
     1
  3
ACAD_XREC_ROUNDTRIP
360
132D
  0
DICTIONARY
  5
12DB
330
3DC
100
AcDbDictionary
280
     1
281
     1
  3
ACAD_ROUNDTRIP_2008_TABLESTYLE_CELLSTYLEMAP
360
12DC
  3
ACAD_XREC_ROUNDTRIP
360
1328
  0
DICTIONARY
  5
1302
330
3C7
100
AcDbDictionary
280
     1
281
     1
  3
ACAD_XREC_ROUNDTRIP
360
1303
  0
DICTIONARY
  5
1300
330
3C6
100
AcDbDictionary
280
     1
281
     1
  3
ACAD_XREC_ROUNDTRIP
360
1301
  0
DICTIONARY
  5
130E
330
3CD
100
AcDbDictionary
280
     1
281
     1
  3
ACAD_XREC_ROUNDTRIP
360
130F
  0
DICTIONARY
  5
1316
330
3D1
100
AcDbDictionary
280
     1
281
     1
  3
ACAD_XREC_ROUNDTRIP
360
1317
  0
DICTIONARY
  5
1308
330
3CA
100
AcDbDictionary
280
     1
281
     1
  3
ACAD_XREC_ROUNDTRIP
360
1309
  0
DICTIONARY
  5
130C
330
3CC
100
AcDbDictionary
280
     1
281
     1
  3
ACAD_XREC_ROUNDTRIP
360
130D
  0
DICTIONARY
  5
1326
330
3D9
100
AcDbDictionary
280
     1
281
     1
  3
ACAD_XREC_ROUNDTRIP
360
1327
  0
DICTIONARY
  5
1314
330
3D0
100
AcDbDictionary
280
     1
281
     1
  3
ACAD_XREC_ROUNDTRIP
360
1315
  0
DICTIONARY
  5
12F8
330
3C2
100
AcDbDictionary
280
     1
281
     1
  3
ACAD_XREC_ROUNDTRIP
360
12F9
  0
DICTIONARY
  5
12FA
330
3C3
100
AcDbDictionary
280
     1
281
     1
  3
ACAD_XREC_ROUNDTRIP
360
12FB
  0
DICTIONARY
  5
12FC
330
3C4
100
AcDbDictionary
280
     1
281
     1
  3
ACAD_XREC_ROUNDTRIP
360
12FD
  0
DICTIONARY
  5
12FE
330
3C5
100
AcDbDictionary
280
     1
281
     1
  3
ACAD_XREC_ROUNDTRIP
360
12FF
  0
DICTIONARY
  5
1306
330
3C9
100
AcDbDictionary
280
     1
281
     1
  3
ACAD_XREC_ROUNDTRIP
360
1307
  0
DICTIONARY
  5
1322
330
3D7
100
AcDbDictionary
280
     1
281
     1
  3
ACAD_XREC_ROUNDTRIP
360
1323
  0
DICTIONARY
  5
1312
330
3CF
100
AcDbDictionary
280
     1
281
     1
  3
ACAD_XREC_ROUNDTRIP
360
1313
  0
DICTIONARY
  5
1324
330
3D8
100
AcDbDictionary
280
     1
281
     1
  3
ACAD_XREC_ROUNDTRIP
360
1325
  0
DICTIONARY
  5
130A
330
3CB
100
AcDbDictionary
280
     1
281
     1
  3
ACAD_XREC_ROUNDTRIP
360
130B
  0
DICTIONARY
  5
1320
330
3D6
100
AcDbDictionary
280
     1
281
     1
  3
ACAD_XREC_ROUNDTRIP
360
1321
  0
DICTIONARY
  5
131E
330
3D5
100
AcDbDictionary
280
     1
281
     1
  3
ACAD_XREC_ROUNDTRIP
360
131F
  0
DICTIONARY
  5
1318
330
3D2
100
AcDbDictionary
280
     1
281
     1
  3
ACAD_XREC_ROUNDTRIP
360
1319
  0
DICTIONARY
  5
131A
330
3D3
100
AcDbDictionary
280
     1
281
     1
  3
ACAD_XREC_ROUNDTRIP
360
131B
  0
DICTIONARY
  5
1310
330
3CE
100
AcDbDictionary
280
     1
281
     1
  3
ACAD_XREC_ROUNDTRIP
360
1311
  0
DICTIONARY
  5
1304
330
3C8
100
AcDbDictionary
280
     1
281
     1
  3
ACAD_XREC_ROUNDTRIP
360
1305
  0
DICTIONARY
  5
131C
330
3D4
100
AcDbDictionary
280
     1
281
     1
  3
ACAD_XREC_ROUNDTRIP
360
131D
  0
XRECORD
  5
12DF
102
{ACAD_REACTORS
330
12E5
102
}
330
12E5
100
AcDbXrecord
280
     1
  1
AcDb_Thumbnail_Schema
102
{ATTRRECORD
341
12E0
  2
AcDbDs::TreatedAsObjectData
280
     1
291
     1
102
ATTRRECORD}
102
{ATTRRECORD
341
12E1
  2
AcDbDs::Legacy
280
     1
291
     1
102
ATTRRECORD}
  2
AcDbDs::ID
280
    10
 91
        8
102
{ATTRRECORD
341
12E2
  2
AcDs:Indexable
280
     1
291
     1
102
ATTRRECORD}
102
{ATTRRECORD
341
12E3
  2
AcDbDs::HandleAttribute
280
     7
282
     1
102
ATTRRECORD}
  2
Thumbnail_Data
280
    15
 91
        0
  0
XRECORD
  5
12E0
102
{ACAD_REACTORS
330
12E5
102
}
330
12E5
100
AcDbXrecord
280
     1
  1
AcDbDs::TreatedAsObjectDataSchema
  2
AcDbDs::TreatedAsObjectData
280
     1
 91
        0
  0
XRECORD
  5
12E1
102
{ACAD_REACTORS
330
12E5
102
}
330
12E5
100
AcDbXrecord
280
     1
  1
AcDbDs::LegacySchema
  2
AcDbDs::Legacy
280
     1
 91
        0
  0
XRECORD
  5
12E2
102
{ACAD_REACTORS
330
12E5
102
}
330
12E5
100
AcDbXrecord
280
     1
  1
AcDbDs::IndexedPropertySchema
  2
AcDs:Indexable
280
     1
 91
        0
  0
XRECORD
  5
12E3
102
{ACAD_REACTORS
330
12E5
102
}
330
12E5
100
AcDbXrecord
280
     1
  1
AcDbDs::HandleAttributeSchema
  2
AcDbDs::HandleAttribute
280
     7
 91
        1
284
     1
  0
XRECORD
  5
1340
102
{ACAD_REACTORS
330
133F
102
}
330
133F
100
AcDbXrecord
280
     1
102
DISPLAYNAME
  1
Imperial24
102
FLAGS
 90
        0
  0
XRECORD
  5
132F
102
{ACAD_REACTORS
330
132E
102
}
330
132E
100
AcDbXrecord
280
     1
102
DISPLAYNAME
  1
Metric50
102
FLAGS
 90
        0
  0
XRECORD
  5
12E8
102
{ACAD_REACTORS
330
12E7
102
}
330
12E7
100
AcDbXrecord
280
     1
102
SHADEPLOT
 70
     0
102
SHADEPLOTRESLEVEL
 70
     2
102
SHADEPLOTCUSTOMDPI
 70
   300
  0
XRECORD
  5
12EA
102
{ACAD_REACTORS
330
12E9
102
}
330
12E9
100
AcDbXrecord
280
     1
102
SHADEPLOT
 70
     0
102
SHADEPLOTRESLEVEL
 70
     2
102
SHADEPLOTCUSTOMDPI
 70
   300
  0
XRECORD
  5
12EC
102
{ACAD_REACTORS
330
12EB
102
}
330
12EB
100
AcDbXrecord
280
     1
102
SHADEPLOT
 70
     0
102
SHADEPLOTRESLEVEL
 70
     2
102
SHADEPLOTCUSTOMDPI
 70
   300
  0
XRECORD
  5
12F6
102
{ACAD_REACTORS
330
3B2
102
}
330
3B2
100
AcDbXrecord
280
     1
102
MATERIAL
148
0.0
149
0.0
149
0.0
 93
        0
 94
      127
282
     0
 72
     0
 77
     0
171
     0
175
     0
179
     0
273
     0
  0
XRECORD
  5
3B4
102
{ACAD_REACTORS
330
3B2
102
}
330
3B2
100
AcDbXrecord
280
     1
270
     1
271
     1
  0
XRECORD
  5
3B3
102
{ACAD_REACTORS
330
3B2
102
}
330
3B2
100
AcDbXrecord
280
     1
270
     1
271
     1
  0
XRECORD
  5
3B7
102
{ACAD_REACTORS
330
3B2
102
}
330
3B2
100
AcDbXrecord
280
     1
270
     1
271
     1
  0
XRECORD
  5
3B6
102
{ACAD_REACTORS
330
3B2
102
}
330
3B2
100
AcDbXrecord
280
     1
270
     1
271
     1
  0
XRECORD
  5
3B8
102
{ACAD_REACTORS
330
3B2
102
}
330
3B2
100
AcDbXrecord
280
     1
270
     1
271
     1
  0
XRECORD
  5
3B5
102
{ACAD_REACTORS
330
3B2
102
}
330
3B2
100
AcDbXrecord
280
     1
270
     1
271
     1
  0
XRECORD
  5
12F5
102
{ACAD_REACTORS
330
3AA
102
}
330
3AA
100
AcDbXrecord
280
     1
102
MATERIAL
148
0.0
149
0.0
149
0.0
 93
        0
 94
      127
282
     0
 72
     0
 77
     0
171
     0
175
     0
179
     0
273
     0
  0
XRECORD
  5
3AC
102
{ACAD_REACTORS
330
3AA
102
}
330
3AA
100
AcDbXrecord
280
     1
270
     1
271
     1
  0
XRECORD
  5
3AB
102
{ACAD_REACTORS
330
3AA
102
}
330
3AA
100
AcDbXrecord
280
     1
270
     1
271
     1
  0
XRECORD
  5
3AF
102
{ACAD_REACTORS
330
3AA
102
}
330
3AA
100
AcDbXrecord
280
     1
270
     1
271
     1
  0
XRECORD
  5
3AE
102
{ACAD_REACTORS
330
3AA
102
}
330
3AA
100
AcDbXrecord
280
     1
270
     1
271
     1
  0
XRECORD
  5
3B0
102
{ACAD_REACTORS
330
3AA
102
}
330
3AA
100
AcDbXrecord
280
     1
270
     1
271
     1
  0
XRECORD
  5
3AD
102
{ACAD_REACTORS
330
3AA
102
}
330
3AA
100
AcDbXrecord
280
     1
270
     1
271
     1
  0
XRECORD
  5
12F7
102
{ACAD_REACTORS
330
3BA
102
}
330
3BA
100
AcDbXrecord
280
     1
102
MATERIAL
148
0.0
149
0.0
149
0.0
 93
        0
 94
      127
282
     0
 72
     0
 77
     0
171
     0
175
     0
179
     0
273
     0
  0
XRECORD
  5
3BC
102
{ACAD_REACTORS
330
3BA
102
}
330
3BA
100
AcDbXrecord
280
     1
270
     1
271
     1
  0
XRECORD
  5
3BB
102
{ACAD_REACTORS
330
3BA
102
}
330
3BA
100
AcDbXrecord
280
     1
270
     1
271
     1
  0
XRECORD
  5
3BF
102
{ACAD_REACTORS
330
3BA
102
}
330
3BA
100
AcDbXrecord
280
     1
270
     1
271
     1
  0
XRECORD
  5
3BE
102
{ACAD_REACTORS
330
3BA
102
}
330
3BA
100
AcDbXrecord
280
     1
270
     1
271
     1
  0
XRECORD
  5
3C0
102
{ACAD_REACTORS
330
3BA
102
}
330
3BA
100
AcDbXrecord
280
     1
270
     1
271
     1
  0
XRECORD
  5
3BD
102
{ACAD_REACTORS
330
3BA
102
}
330
3BA
100
AcDbXrecord
280
     1
270
     1
271
     1
  0
XRECORD
  5
132B
102
{ACAD_REACTORS
330
132A
102
}
330
132A
100
AcDbXrecord
280
     1
102
ACAD_ROUNDTRIP_2012_MLEADER_STYLE
298
     1
  0
XRECORD
  5
133E
102
{ACAD_REACTORS
330
133D
102
}
330
133D
100
AcDbXrecord
280
     1
102
DISPLAYNAME
  1
Imperial24
102
FLAGS
 90
        0
  0
XRECORD
  5
132D
102
{ACAD_REACTORS
330
132C
102
}
330
132C
100
AcDbXrecord
280
     1
102
DISPLAYNAME
  1
Metric50
102
FLAGS
 90
        0
  0
CELLSTYLEMAP
  5
12DC
102
{ACAD_REACTORS
330
12DB
102
}
330
12DB
100
AcDbCellStyleMap
 90
        3
300
CELLSTYLE
  1
TABLEFORMAT_BEGIN
 90
        5
170
     1
 91
        0
 92
    32768
 62
   257
 93
        1
300
CONTENTFORMAT
  1
CONTENTFORMAT_BEGIN
 90
        0
 91
        0
 92
      512
 93
        0
300

 40
0.0
140
1.0
 94
        5
 62
     0
340
11
144
6.0
309
CONTENTFORMAT_END
171
     1
301
MARGIN
  1
CELLMARGIN_BEGIN
 40
1.5
 40
1.5
 40
1.5
 40
1.5
 40
4.5
 40
4.5
309
CELLMARGIN_END
 94
        6
 95
        1
302
GRIDFORMAT
  1
GRIDFORMAT_BEGIN
 90
        0
 91
        1
 62
     0
 92
       -2
340
0
 93
        0
 40
1.125
309
GRIDFORMAT_END
 95
        2
302
GRIDFORMAT
  1
GRIDFORMAT_BEGIN
 90
        0
 91
        1
 62
     0
 92
       -2
340
0
 93
        0
 40
1.125
309
GRIDFORMAT_END
 95
        4
302
GRIDFORMAT
  1
GRIDFORMAT_BEGIN
 90
        0
 91
        1
 62
     0
 92
       -2
340
0
 93
        0
 40
1.125
309
GRIDFORMAT_END
 95
        8
302
GRIDFORMAT
  1
GRIDFORMAT_BEGIN
 90
        0
 91
        1
 62
     0
 92
       -2
340
0
 93
        0
 40
1.125
309
GRIDFORMAT_END
 95
       16
302
GRIDFORMAT
  1
GRIDFORMAT_BEGIN
 90
        0
 91
        1
 62
     0
 92
       -2
340
0
 93
        0
 40
1.125
309
GRIDFORMAT_END
 95
       32
302
GRIDFORMAT
  1
GRIDFORMAT_BEGIN
 90
        0
 91
        1
 62
     0
 92
       -2
340
0
 93
        0
 40
1.125
309
GRIDFORMAT_END
309
TABLEFORMAT_END
  1
CELLSTYLE_BEGIN
 90
        1
 91
        1
300
_TITLE
309
CELLSTYLE_END
300
CELLSTYLE
  1
TABLEFORMAT_BEGIN
 90
        5
170
     1
 91
        0
 92
        0
 62
   257
 93
        1
300
CONTENTFORMAT
  1
CONTENTFORMAT_BEGIN
 90
        0
 91
        0
 92
      512
 93
        0
300

 40
0.0
140
1.0
 94
        5
 62
     0
340
11
144
4.5
309
CONTENTFORMAT_END
171
     1
301
MARGIN
  1
CELLMARGIN_BEGIN
 40
1.5
 40
1.5
 40
1.5
 40
1.5
 40
4.5
 40
4.5
309
CELLMARGIN_END
 94
        6
 95
        1
302
GRIDFORMAT
  1
GRIDFORMAT_BEGIN
 90
        0
 91
        1
 62
     0
 92
       -2
340
0
 93
        0
 40
1.125
309
GRIDFORMAT_END
 95
        2
302
GRIDFORMAT
  1
GRIDFORMAT_BEGIN
 90
        0
 91
        1
 62
     0
 92
       -2
340
0
 93
        0
 40
1.125
309
GRIDFORMAT_END
 95
        4
302
GRIDFORMAT
  1
GRIDFORMAT_BEGIN
 90
        0
 91
        1
 62
     0
 92
       -2
340
0
 93
        0
 40
1.125
309
GRIDFORMAT_END
 95
        8
302
GRIDFORMAT
  1
GRIDFORMAT_BEGIN
 90
        0
 91
        1
 62
     0
 92
       -2
340
0
 93
        0
 40
1.125
309
GRIDFORMAT_END
 95
       16
302
GRIDFORMAT
  1
GRIDFORMAT_BEGIN
 90
        0
 91
        1
 62
     0
 92
       -2
340
0
 93
        0
 40
1.125
309
GRIDFORMAT_END
 95
       32
302
GRIDFORMAT
  1
GRIDFORMAT_BEGIN
 90
        0
 91
        1
 62
     0
 92
       -2
340
0
 93
        0
 40
1.125
309
GRIDFORMAT_END
309
TABLEFORMAT_END
  1
CELLSTYLE_BEGIN
 90
        2
 91
        1
300
_HEADER
309
CELLSTYLE_END
300
CELLSTYLE
  1
TABLEFORMAT_BEGIN
 90
        5
170
     1
 91
        0
 92
        0
 62
   257
 93
        1
300
CONTENTFORMAT
  1
CONTENTFORMAT_BEGIN
 90
        0
 91
        0
 92
      512
 93
        0
300

 40
0.0
140
1.0
 94
        2
 62
     0
340
11
144
4.5
309
CONTENTFORMAT_END
171
     1
301
MARGIN
  1
CELLMARGIN_BEGIN
 40
1.5
 40
1.5
 40
1.5
 40
1.5
 40
4.5
 40
4.5
309
CELLMARGIN_END
 94
        6
 95
        1
302
GRIDFORMAT
  1
GRIDFORMAT_BEGIN
 90
        0
 91
        1
 62
     0
 92
       -2
340
0
 93
        0
 40
1.125
309
GRIDFORMAT_END
 95
        2
302
GRIDFORMAT
  1
GRIDFORMAT_BEGIN
 90
        0
 91
        1
 62
     0
 92
       -2
340
0
 93
        0
 40
1.125
309
GRIDFORMAT_END
 95
        4
302
GRIDFORMAT
  1
GRIDFORMAT_BEGIN
 90
        0
 91
        1
 62
     0
 92
       -2
340
0
 93
        0
 40
1.125
309
GRIDFORMAT_END
 95
        8
302
GRIDFORMAT
  1
GRIDFORMAT_BEGIN
 90
        0
 91
        1
 62
     0
 92
       -2
340
0
 93
        0
 40
1.125
309
GRIDFORMAT_END
 95
       16
302
GRIDFORMAT
  1
GRIDFORMAT_BEGIN
 90
        0
 91
        1
 62
     0
 92
       -2
340
0
 93
        0
 40
1.125
309
GRIDFORMAT_END
 95
       32
302
GRIDFORMAT
  1
GRIDFORMAT_BEGIN
 90
        0
 91
        1
 62
     0
 92
       -2
340
0
 93
        0
 40
1.125
309
GRIDFORMAT_END
309
TABLEFORMAT_END
  1
CELLSTYLE_BEGIN
 90
        3
 91
        2
300
_DATA
309
CELLSTYLE_END
  0
XRECORD
  5
1328
102
{ACAD_REACTORS
330
12DB
102
}
330
12DB
100
AcDbXrecord
280
     1
102
ACAD_ROUNDTRIP_PRE2007_TABLESTYLE
 90
      512
 91
        0
  1

 92
      512
 93
        0
  2

 94
      512
 95
        0
  3

  0
XRECORD
  5
1303
102
{ACAD_REACTORS
330
1302
102
}
330
1302
100
AcDbXrecord
280
     1
102
RTVSPost2010Prop28
280
     1
102
RTVSPost2010PropOp28
 70
     1
102
RTVSPost2010Prop29
280
     1
102
RTVSPost2010PropOp29
 70
     1
102
RTVSPost2010Prop30
280
     0
102
RTVSPost2010PropOp30
 70
     1
102
RTVSPost2010Prop31
280
     0
102
RTVSPost2010PropOp31
 70
     1
102
RTVSPost2010Prop32
280
     0
102
RTVSPost2010PropOp32
 70
     1
102
RTVSPost2010Prop33
280
     0
102
RTVSPost2010PropOp33
 70
     1
102
RTVSPost2010Prop34
280
     0
102
RTVSPost2010PropOp34
 70
     1
102
RTVSPost2010Prop35
280
     0
102
RTVSPost2010PropOp35
 70
     1
102
RTVSPost2010Prop36
280
     0
102
RTVSPost2010PropOp36
 70
     1
102
RTVSPost2010Prop37
 90
       50
102
RTVSPost2010PropOp37
 70
     1
102
RTVSPost2010Prop38
140
0.0
102
RTVSPost2010PropOp38
 70
     1
102
RTVSPost2010Prop39
140
1.0
102
RTVSPost2010PropOp39
 70
     1
102
RTVSPost2010Prop40
 90
        0
102
RTVSPost2010PropOp40
 70
     1
102
RTVSPost2010Prop41ColorIndex
 90
       18
102
RTVSPost2010Prop41ColorRGB
 90
        0
102
RTVSPost2010PropOp41
 70
     1
102
RTVSPost2010Prop42
 90
       50
102
RTVSPost2010PropOp42
 70
     1
102
RTVSPost2010Prop43
 90
        3
102
RTVSPost2010PropOp43
 70
     1
102
RTVSPost2010Prop44ColorIndex
 90
        5
102
RTVSPost2010Prop44ColorRGB
 90
      255
102
RTVSPost2010PropOp44
 70
     1
102
RTVSPost2010Prop45
280
     0
102
RTVSPost2010PropOp45
 70
     1
102
RTVSPost2010Prop46
 90
       50
102
RTVSPost2010PropOp46
 70
     1
102
RTVSPost2010Prop47
 90
       50
102
RTVSPost2010PropOp47
 70
     1
102
RTVSPost2010Prop48
 90
       50
102
RTVSPost2010PropOp48
 70
     1
102
RTVSPost2010Prop49
280
     0
102
RTVSPost2010PropOp49
 70
     1
102
RTVSPost2010Prop50
 90
       50
102
RTVSPost2010PropOp50
 70
     1
102
RTVSPost2010Prop51ColorIndex
 90
      256
102
RTVSPost2010Prop51ColorRGB
 90
-16777216
102
RTVSPost2010PropOp51
 70
     0
102
RTVSPost2010Prop52
140
1.0
102
RTVSPost2010PropOp52
 70
     0
102
RTVSPost2010Prop53
 90
        2
102
RTVSPost2010PropOp53
 70
     1
102
RTVSPost2010Prop54
  1
strokes_ogs.tif
102
RTVSPost2010PropOp54
 70
     1
102
RTVSPost2010Prop55
280
     0
102
RTVSPost2010PropOp55
 70
     1
102
RTVSPost2010Prop56
140
1.0
102
RTVSPost2010PropOp56
 70
     1
102
RTVSPost2010Prop57
140
1.0
102
RTVSPost2010PropOp57
 70
     1
102
RTVSPropertyOp0
 70
     1
102
RTVSPropertyOp1
 70
     1
102
RTVSPropertyOp2
 70
     1
102
RTVSPropertyOp3
 70
     1
102
RTVSPropertyOp4
 70
     1
102
RTVSPropertyOp5
 70
     1
102
RTVSPropertyOp6
 70
     1
102
RTVSPropertyOp7
 70
     1
102
RTVSPropertyOp8
 70
     1
102
RTVSPropertyOp9
 70
     1
102
RTVSPropertyOp10
 70
     1
102
RTVSPropertyOp11
 70
     1
102
RTVSPropertyOp12
 70
     1
102
RTVSPropertyOp13
 70
     1
102
RTVSPropertyOp14
 70
     1
102
RTVSPropertyOp15
 70
     1
102
RTVSPropertyOp16
 70
     1
102
RTVSPropertyOp17
 70
     1
102
RTVSPropertyOp18
 70
     1
102
RTVSPropertyOp19
 70
     1
102
RTVSPropertyOp20
 70
     1
102
RTVSPropertyOp21
 70
     1
102
RTVSPropertyOp22
 70
     1
102
RTVSPropertyOp23
 70
     1
102
RTVSPropertyOp24
 70
     1
102
RTVSPropertyOp25
 70
     1
102
RTVSPropertyOp26
 70
     1
102
RTVSPropertyOp27
 70
     1
102
RTVSPropertyOp28
 70
     1
102
RTVSPropertyOp29
 70
     1
102
RTVSPropertyOp30
 70
     1
102
RTVSPropertyOp31
 70
     1
102
RTVSPropertyOp32
 70
     1
102
RTVSPropertyOp33
 70
     1
102
RTVSPropertyOp34
 70
     1
102
RTVSPropertyOp35
 70
     1
102
RTVSPropertyOp36
 70
     1
102
RTVSPropertyOp37
 70
     1
102
RTVSPropertyOp38
 70
     1
102
RTVSPropertyOp39
 70
     1
102
RTVSPropertyOp40
 70
     1
102
RTVSPropertyOp41
 70
     1
102
RTVSPropertyOp42
 70
     1
102
RTVSPropertyOp43
 70
     1
102
RTVSPropertyOp44
 70
     1
102
RTVSPropertyOp45
 70
     1
102
RTVSPropertyOp46
 70
     1
102
RTVSPropertyOp47
 70
     1
102
RTVSPropertyOp48
 70
     1
102
RTVSPropertyOp49
 70
     1
102
RTVSPropertyOp50
 70
     1
102
RTVSPropertyOp51
 70
     0
102
RTVSPropertyOp52
 70
     0
102
RTVSPropertyOp53
 70
     1
102
RTVSPropertyOp54
 70
     1
102
RTVSPropertyOp55
 70
     1
102
RTVSPropertyOp56
 70
     1
102
RTVSPropertyOp57
 70
     1
102
RTVSPropertyOp58
 70
     1
102
RTVSPropertyOp59
 70
     1
102
RTVSPropertyOp60
 70
     1
102
RTVSPropertyOp61
 70
     1
102
RTVSPropertyOp62
 70
     1
  0
XRECORD
  5
1301
102
{ACAD_REACTORS
330
1300
102
}
330
1300
100
AcDbXrecord
280
     1
102
RTVSPost2010Prop28
280
     0
102
RTVSPost2010PropOp28
 70
     1
102
RTVSPost2010Prop29
280
     1
102
RTVSPost2010PropOp29
 70
     1
102
RTVSPost2010Prop30
280
     1
102
RTVSPost2010PropOp30
 70
     1
102
RTVSPost2010Prop31
280
     0
102
RTVSPost2010PropOp31
 70
     1
102
RTVSPost2010Prop32
280
     0
102
RTVSPost2010PropOp32
 70
     1
102
RTVSPost2010Prop33
280
     0
102
RTVSPost2010PropOp33
 70
     1
102
RTVSPost2010Prop34
280
     0
102
RTVSPost2010PropOp34
 70
     1
102
RTVSPost2010Prop35
280
     0
102
RTVSPost2010PropOp35
 70
     1
102
RTVSPost2010Prop36
280
     0
102
RTVSPost2010PropOp36
 70
     1
102
RTVSPost2010Prop37
 90
       50
102
RTVSPost2010PropOp37
 70
     1
102
RTVSPost2010Prop38
140
0.0
102
RTVSPost2010PropOp38
 70
     1
102
RTVSPost2010Prop39
140
1.0
102
RTVSPost2010PropOp39
 70
     1
102
RTVSPost2010Prop40
 90
        0
102
RTVSPost2010PropOp40
 70
     1
102
RTVSPost2010Prop41ColorIndex
 90
       18
102
RTVSPost2010Prop41ColorRGB
 90
        0
102
RTVSPost2010PropOp41
 70
     1
102
RTVSPost2010Prop42
 90
       50
102
RTVSPost2010PropOp42
 70
     1
102
RTVSPost2010Prop43
 90
        3
102
RTVSPost2010PropOp43
 70
     1
102
RTVSPost2010Prop44ColorIndex
 90
        5
102
RTVSPost2010Prop44ColorRGB
 90
      255
102
RTVSPost2010PropOp44
 70
     1
102
RTVSPost2010Prop45
280
     0
102
RTVSPost2010PropOp45
 70
     1
102
RTVSPost2010Prop46
 90
       50
102
RTVSPost2010PropOp46
 70
     1
102
RTVSPost2010Prop47
 90
       50
102
RTVSPost2010PropOp47
 70
     1
102
RTVSPost2010Prop48
 90
       50
102
RTVSPost2010PropOp48
 70
     1
102
RTVSPost2010Prop49
280
     0
102
RTVSPost2010PropOp49
 70
     1
102
RTVSPost2010Prop50
 90
       50
102
RTVSPost2010PropOp50
 70
     1
102
RTVSPost2010Prop51ColorIndex
 90
      256
102
RTVSPost2010Prop51ColorRGB
 90
-16777216
102
RTVSPost2010PropOp51
 70
     0
102
RTVSPost2010Prop52
140
1.0
102
RTVSPost2010PropOp52
 70
     0
102
RTVSPost2010Prop53
 90
        2
102
RTVSPost2010PropOp53
 70
     1
102
RTVSPost2010Prop54
  1
strokes_ogs.tif
102
RTVSPost2010PropOp54
 70
     1
102
RTVSPost2010Prop55
280
     0
102
RTVSPost2010PropOp55
 70
     1
102
RTVSPost2010Prop56
140
1.0
102
RTVSPost2010PropOp56
 70
     1
102
RTVSPost2010Prop57
140
1.0
102
RTVSPost2010PropOp57
 70
     1
102
RTVSPropertyOp0
 70
     1
102
RTVSPropertyOp1
 70
     1
102
RTVSPropertyOp2
 70
     1
102
RTVSPropertyOp3
 70
     1
102
RTVSPropertyOp4
 70
     1
102
RTVSPropertyOp5
 70
     1
102
RTVSPropertyOp6
 70
     1
102
RTVSPropertyOp7
 70
     1
102
RTVSPropertyOp8
 70
     1
102
RTVSPropertyOp9
 70
     1
102
RTVSPropertyOp10
 70
     1
102
RTVSPropertyOp11
 70
     1
102
RTVSPropertyOp12
 70
     1
102
RTVSPropertyOp13
 70
     1
102
RTVSPropertyOp14
 70
     1
102
RTVSPropertyOp15
 70
     1
102
RTVSPropertyOp16
 70
     1
102
RTVSPropertyOp17
 70
     1
102
RTVSPropertyOp18
 70
     1
102
RTVSPropertyOp19
 70
     1
102
RTVSPropertyOp20
 70
     1
102
RTVSPropertyOp21
 70
     1
102
RTVSPropertyOp22
 70
     1
102
RTVSPropertyOp23
 70
     1
102
RTVSPropertyOp24
 70
     1
102
RTVSPropertyOp25
 70
     1
102
RTVSPropertyOp26
 70
     1
102
RTVSPropertyOp27
 70
     1
102
RTVSPropertyOp28
 70
     1
102
RTVSPropertyOp29
 70
     1
102
RTVSPropertyOp30
 70
     1
102
RTVSPropertyOp31
 70
     1
102
RTVSPropertyOp32
 70
     1
102
RTVSPropertyOp33
 70
     1
102
RTVSPropertyOp34
 70
     1
102
RTVSPropertyOp35
 70
     1
102
RTVSPropertyOp36
 70
     1
102
RTVSPropertyOp37
 70
     1
102
RTVSPropertyOp38
 70
     1
102
RTVSPropertyOp39
 70
     1
102
RTVSPropertyOp40
 70
     1
102
RTVSPropertyOp41
 70
     1
102
RTVSPropertyOp42
 70
     1
102
RTVSPropertyOp43
 70
     1
102
RTVSPropertyOp44
 70
     1
102
RTVSPropertyOp45
 70
     1
102
RTVSPropertyOp46
 70
     1
102
RTVSPropertyOp47
 70
     1
102
RTVSPropertyOp48
 70
     1
102
RTVSPropertyOp49
 70
     1
102
RTVSPropertyOp50
 70
     1
102
RTVSPropertyOp51
 70
     0
102
RTVSPropertyOp52
 70
     0
102
RTVSPropertyOp53
 70
     1
102
RTVSPropertyOp54
 70
     1
102
RTVSPropertyOp55
 70
     1
102
RTVSPropertyOp56
 70
     1
102
RTVSPropertyOp57
 70
     1
102
RTVSPropertyOp58
 70
     1
102
RTVSPropertyOp59
 70
     1
102
RTVSPropertyOp60
 70
     1
102
RTVSPropertyOp61
 70
     1
102
RTVSPropertyOp62
 70
     1
  0
XRECORD
  5
130F
102
{ACAD_REACTORS
330
130E
102
}
330
130E
100
AcDbXrecord
280
     1
102
RTVSPost2010Prop28
280
     0
102
RTVSPost2010PropOp28
 70
     1
102
RTVSPost2010Prop29
280
     1
102
RTVSPost2010PropOp29
 70
     1
102
RTVSPost2010Prop30
280
     1
102
RTVSPost2010PropOp30
 70
     1
102
RTVSPost2010Prop31
280
     0
102
RTVSPost2010PropOp31
 70
     1
102
RTVSPost2010Prop32
280
     0
102
RTVSPost2010PropOp32
 70
     1
102
RTVSPost2010Prop33
280
     0
102
RTVSPost2010PropOp33
 70
     1
102
RTVSPost2010Prop34
280
     0
102
RTVSPost2010PropOp34
 70
     1
102
RTVSPost2010Prop35
280
     0
102
RTVSPost2010PropOp35
 70
     1
102
RTVSPost2010Prop36
280
     0
102
RTVSPost2010PropOp36
 70
     1
102
RTVSPost2010Prop37
 90
       50
102
RTVSPost2010PropOp37
 70
     1
102
RTVSPost2010Prop38
140
0.0
102
RTVSPost2010PropOp38
 70
     1
102
RTVSPost2010Prop39
140
1.0
102
RTVSPost2010PropOp39
 70
     1
102
RTVSPost2010Prop40
 90
        0
102
RTVSPost2010PropOp40
 70
     1
102
RTVSPost2010Prop41ColorIndex
 90
       18
102
RTVSPost2010Prop41ColorRGB
 90
        0
102
RTVSPost2010PropOp41
 70
     1
102
RTVSPost2010Prop42
 90
       50
102
RTVSPost2010PropOp42
 70
     1
102
RTVSPost2010Prop43
 90
        3
102
RTVSPost2010PropOp43
 70
     1
102
RTVSPost2010Prop44ColorIndex
 90
        5
102
RTVSPost2010Prop44ColorRGB
 90
      255
102
RTVSPost2010PropOp44
 70
     1
102
RTVSPost2010Prop45
280
     0
102
RTVSPost2010PropOp45
 70
     1
102
RTVSPost2010Prop46
 90
       50
102
RTVSPost2010PropOp46
 70
     1
102
RTVSPost2010Prop47
 90
       50
102
RTVSPost2010PropOp47
 70
     1
102
RTVSPost2010Prop48
 90
       50
102
RTVSPost2010PropOp48
 70
     1
102
RTVSPost2010Prop49
280
     0
102
RTVSPost2010PropOp49
 70
     1
102
RTVSPost2010Prop50
 90
       50
102
RTVSPost2010PropOp50
 70
     1
102
RTVSPost2010Prop51ColorIndex
 90
      256
102
RTVSPost2010Prop51ColorRGB
 90
-16777216
102
RTVSPost2010PropOp51
 70
     0
102
RTVSPost2010Prop52
140
1.0
102
RTVSPost2010PropOp52
 70
     0
102
RTVSPost2010Prop53
 90
        2
102
RTVSPost2010PropOp53
 70
     1
102
RTVSPost2010Prop54
  1
strokes_ogs.tif
102
RTVSPost2010PropOp54
 70
     1
102
RTVSPost2010Prop55
280
     0
102
RTVSPost2010PropOp55
 70
     1
102
RTVSPost2010Prop56
140
1.0
102
RTVSPost2010PropOp56
 70
     1
102
RTVSPost2010Prop57
140
1.0
102
RTVSPost2010PropOp57
 70
     1
102
RTVSPropertyOp0
 70
     1
102
RTVSPropertyOp1
 70
     1
102
RTVSPropertyOp2
 70
     1
102
RTVSPropertyOp3
 70
     1
102
RTVSPropertyOp4
 70
     1
102
RTVSPropertyOp5
 70
     1
102
RTVSPropertyOp6
 70
     1
102
RTVSPropertyOp7
 70
     1
102
RTVSPropertyOp8
 70
     1
102
RTVSPropertyOp9
 70
     1
102
RTVSPropertyOp10
 70
     1
102
RTVSPropertyOp11
 70
     1
102
RTVSPropertyOp12
 70
     1
102
RTVSPropertyOp13
 70
     1
102
RTVSPropertyOp14
 70
     1
102
RTVSPropertyOp15
 70
     1
102
RTVSPropertyOp16
 70
     1
102
RTVSPropertyOp17
 70
     1
102
RTVSPropertyOp18
 70
     1
102
RTVSPropertyOp19
 70
     1
102
RTVSPropertyOp20
 70
     1
102
RTVSPropertyOp21
 70
     1
102
RTVSPropertyOp22
 70
     1
102
RTVSPropertyOp23
 70
     1
102
RTVSPropertyOp24
 70
     1
102
RTVSPropertyOp25
 70
     1
102
RTVSPropertyOp26
 70
     1
102
RTVSPropertyOp27
 70
     1
102
RTVSPropertyOp28
 70
     1
102
RTVSPropertyOp29
 70
     1
102
RTVSPropertyOp30
 70
     1
102
RTVSPropertyOp31
 70
     1
102
RTVSPropertyOp32
 70
     1
102
RTVSPropertyOp33
 70
     1
102
RTVSPropertyOp34
 70
     1
102
RTVSPropertyOp35
 70
     1
102
RTVSPropertyOp36
 70
     1
102
RTVSPropertyOp37
 70
     1
102
RTVSPropertyOp38
 70
     1
102
RTVSPropertyOp39
 70
     1
102
RTVSPropertyOp40
 70
     1
102
RTVSPropertyOp41
 70
     1
102
RTVSPropertyOp42
 70
     1
102
RTVSPropertyOp43
 70
     1
102
RTVSPropertyOp44
 70
     1
102
RTVSPropertyOp45
 70
     1
102
RTVSPropertyOp46
 70
     1
102
RTVSPropertyOp47
 70
     1
102
RTVSPropertyOp48
 70
     1
102
RTVSPropertyOp49
 70
     1
102
RTVSPropertyOp50
 70
     1
102
RTVSPropertyOp51
 70
     0
102
RTVSPropertyOp52
 70
     0
102
RTVSPropertyOp53
 70
     1
102
RTVSPropertyOp54
 70
     1
102
RTVSPropertyOp55
 70
     1
102
RTVSPropertyOp56
 70
     1
102
RTVSPropertyOp57
 70
     1
102
RTVSPropertyOp58
 70
     1
102
RTVSPropertyOp59
 70
     1
102
RTVSPropertyOp60
 70
     1
102
RTVSPropertyOp61
 70
     1
102
RTVSPropertyOp62
 70
     1
  0
XRECORD
  5
1317
102
{ACAD_REACTORS
330
1316
102
}
330
1316
100
AcDbXrecord
280
     1
102
RTVSPost2010Prop28
280
     0
102
RTVSPost2010PropOp28
 70
     1
102
RTVSPost2010Prop29
280
     1
102
RTVSPost2010PropOp29
 70
     1
102
RTVSPost2010Prop30
280
     1
102
RTVSPost2010PropOp30
 70
     1
102
RTVSPost2010Prop31
280
     0
102
RTVSPost2010PropOp31
 70
     1
102
RTVSPost2010Prop32
280
     0
102
RTVSPost2010PropOp32
 70
     1
102
RTVSPost2010Prop33
280
     0
102
RTVSPost2010PropOp33
 70
     1
102
RTVSPost2010Prop34
280
     0
102
RTVSPost2010PropOp34
 70
     1
102
RTVSPost2010Prop35
280
     0
102
RTVSPost2010PropOp35
 70
     1
102
RTVSPost2010Prop36
280
     0
102
RTVSPost2010PropOp36
 70
     1
102
RTVSPost2010Prop37
 90
       50
102
RTVSPost2010PropOp37
 70
     1
102
RTVSPost2010Prop38
140
0.0
102
RTVSPost2010PropOp38
 70
     1
102
RTVSPost2010Prop39
140
1.0
102
RTVSPost2010PropOp39
 70
     1
102
RTVSPost2010Prop40
 90
        0
102
RTVSPost2010PropOp40
 70
     1
102
RTVSPost2010Prop41ColorIndex
 90
       18
102
RTVSPost2010Prop41ColorRGB
 90
        0
102
RTVSPost2010PropOp41
 70
     1
102
RTVSPost2010Prop42
 90
       50
102
RTVSPost2010PropOp42
 70
     1
102
RTVSPost2010Prop43
 90
        3
102
RTVSPost2010PropOp43
 70
     1
102
RTVSPost2010Prop44ColorIndex
 90
        5
102
RTVSPost2010Prop44ColorRGB
 90
      255
102
RTVSPost2010PropOp44
 70
     1
102
RTVSPost2010Prop45
280
     0
102
RTVSPost2010PropOp45
 70
     1
102
RTVSPost2010Prop46
 90
       50
102
RTVSPost2010PropOp46
 70
     1
102
RTVSPost2010Prop47
 90
       50
102
RTVSPost2010PropOp47
 70
     1
102
RTVSPost2010Prop48
 90
       50
102
RTVSPost2010PropOp48
 70
     1
102
RTVSPost2010Prop49
280
     0
102
RTVSPost2010PropOp49
 70
     1
102
RTVSPost2010Prop50
 90
       50
102
RTVSPost2010PropOp50
 70
     1
102
RTVSPost2010Prop51ColorIndex
 90
      256
102
RTVSPost2010Prop51ColorRGB
 90
-16777216
102
RTVSPost2010PropOp51
 70
     0
102
RTVSPost2010Prop52
140
1.0
102
RTVSPost2010PropOp52
 70
     0
102
RTVSPost2010Prop53
 90
        2
102
RTVSPost2010PropOp53
 70
     1
102
RTVSPost2010Prop54
  1
strokes_ogs.tif
102
RTVSPost2010PropOp54
 70
     1
102
RTVSPost2010Prop55
280
     0
102
RTVSPost2010PropOp55
 70
     1
102
RTVSPost2010Prop56
140
1.0
102
RTVSPost2010PropOp56
 70
     1
102
RTVSPost2010Prop57
140
1.0
102
RTVSPost2010PropOp57
 70
     1
102
RTVSPropertyOp0
 70
     1
102
RTVSPropertyOp1
 70
     1
102
RTVSPropertyOp2
 70
     1
102
RTVSPropertyOp3
 70
     1
102
RTVSPropertyOp4
 70
     1
102
RTVSPropertyOp5
 70
     1
102
RTVSPropertyOp6
 70
     1
102
RTVSPropertyOp7
 70
     1
102
RTVSPropertyOp8
 70
     1
102
RTVSPropertyOp9
 70
     1
102
RTVSPropertyOp10
 70
     1
102
RTVSPropertyOp11
 70
     1
102
RTVSPropertyOp12
 70
     1
102
RTVSPropertyOp13
 70
     1
102
RTVSPropertyOp14
 70
     1
102
RTVSPropertyOp15
 70
     1
102
RTVSPropertyOp16
 70
     1
102
RTVSPropertyOp17
 70
     1
102
RTVSPropertyOp18
 70
     1
102
RTVSPropertyOp19
 70
     1
102
RTVSPropertyOp20
 70
     1
102
RTVSPropertyOp21
 70
     1
102
RTVSPropertyOp22
 70
     1
102
RTVSPropertyOp23
 70
     1
102
RTVSPropertyOp24
 70
     1
102
RTVSPropertyOp25
 70
     1
102
RTVSPropertyOp26
 70
     1
102
RTVSPropertyOp27
 70
     1
102
RTVSPropertyOp28
 70
     1
102
RTVSPropertyOp29
 70
     1
102
RTVSPropertyOp30
 70
     1
102
RTVSPropertyOp31
 70
     1
102
RTVSPropertyOp32
 70
     1
102
RTVSPropertyOp33
 70
     1
102
RTVSPropertyOp34
 70
     1
102
RTVSPropertyOp35
 70
     1
102
RTVSPropertyOp36
 70
     1
102
RTVSPropertyOp37
 70
     1
102
RTVSPropertyOp38
 70
     1
102
RTVSPropertyOp39
 70
     1
102
RTVSPropertyOp40
 70
     1
102
RTVSPropertyOp41
 70
     1
102
RTVSPropertyOp42
 70
     1
102
RTVSPropertyOp43
 70
     1
102
RTVSPropertyOp44
 70
     1
102
RTVSPropertyOp45
 70
     1
102
RTVSPropertyOp46
 70
     1
102
RTVSPropertyOp47
 70
     1
102
RTVSPropertyOp48
 70
     1
102
RTVSPropertyOp49
 70
     1
102
RTVSPropertyOp50
 70
     1
102
RTVSPropertyOp51
 70
     0
102
RTVSPropertyOp52
 70
     0
102
RTVSPropertyOp53
 70
     1
102
RTVSPropertyOp54
 70
     1
102
RTVSPropertyOp55
 70
     1
102
RTVSPropertyOp56
 70
     1
102
RTVSPropertyOp57
 70
     1
102
RTVSPropertyOp58
 70
     1
102
RTVSPropertyOp59
 70
     1
102
RTVSPropertyOp60
 70
     1
102
RTVSPropertyOp61
 70
     1
102
RTVSPropertyOp62
 70
     1
  0
XRECORD
  5
1309
102
{ACAD_REACTORS
330
1308
102
}
330
1308
100
AcDbXrecord
280
     1
102
RTVSPost2010Prop28
280
     0
102
RTVSPost2010PropOp28
 70
     1
102
RTVSPost2010Prop29
280
     1
102
RTVSPost2010PropOp29
 70
     1
102
RTVSPost2010Prop30
280
     1
102
RTVSPost2010PropOp30
 70
     1
102
RTVSPost2010Prop31
280
     0
102
RTVSPost2010PropOp31
 70
     1
102
RTVSPost2010Prop32
280
     0
102
RTVSPost2010PropOp32
 70
     1
102
RTVSPost2010Prop33
280
     0
102
RTVSPost2010PropOp33
 70
     1
102
RTVSPost2010Prop34
280
     0
102
RTVSPost2010PropOp34
 70
     1
102
RTVSPost2010Prop35
280
     0
102
RTVSPost2010PropOp35
 70
     1
102
RTVSPost2010Prop36
280
     0
102
RTVSPost2010PropOp36
 70
     1
102
RTVSPost2010Prop37
 90
       50
102
RTVSPost2010PropOp37
 70
     1
102
RTVSPost2010Prop38
140
0.0
102
RTVSPost2010PropOp38
 70
     1
102
RTVSPost2010Prop39
140
1.0
102
RTVSPost2010PropOp39
 70
     1
102
RTVSPost2010Prop40
 90
        0
102
RTVSPost2010PropOp40
 70
     1
102
RTVSPost2010Prop41ColorIndex
 90
       18
102
RTVSPost2010Prop41ColorRGB
 90
        0
102
RTVSPost2010PropOp41
 70
     1
102
RTVSPost2010Prop42
 90
       50
102
RTVSPost2010PropOp42
 70
     1
102
RTVSPost2010Prop43
 90
        3
102
RTVSPost2010PropOp43
 70
     1
102
RTVSPost2010Prop44ColorIndex
 90
        5
102
RTVSPost2010Prop44ColorRGB
 90
      255
102
RTVSPost2010PropOp44
 70
     1
102
RTVSPost2010Prop45
280
     0
102
RTVSPost2010PropOp45
 70
     1
102
RTVSPost2010Prop46
 90
       50
102
RTVSPost2010PropOp46
 70
     1
102
RTVSPost2010Prop47
 90
       50
102
RTVSPost2010PropOp47
 70
     1
102
RTVSPost2010Prop48
 90
       50
102
RTVSPost2010PropOp48
 70
     1
102
RTVSPost2010Prop49
280
     0
102
RTVSPost2010PropOp49
 70
     1
102
RTVSPost2010Prop50
 90
       50
102
RTVSPost2010PropOp50
 70
     1
102
RTVSPost2010Prop51ColorIndex
 90
      256
102
RTVSPost2010Prop51ColorRGB
 90
-16777216
102
RTVSPost2010PropOp51
 70
     0
102
RTVSPost2010Prop52
140
1.0
102
RTVSPost2010PropOp52
 70
     0
102
RTVSPost2010Prop53
 90
        2
102
RTVSPost2010PropOp53
 70
     1
102
RTVSPost2010Prop54
  1
strokes_ogs.tif
102
RTVSPost2010PropOp54
 70
     1
102
RTVSPost2010Prop55
280
     0
102
RTVSPost2010PropOp55
 70
     1
102
RTVSPost2010Prop56
140
1.0
102
RTVSPost2010PropOp56
 70
     1
102
RTVSPost2010Prop57
140
1.0
102
RTVSPost2010PropOp57
 70
     1
102
RTVSPropertyOp0
 70
     1
102
RTVSPropertyOp1
 70
     1
102
RTVSPropertyOp2
 70
     1
102
RTVSPropertyOp3
 70
     1
102
RTVSPropertyOp4
 70
     1
102
RTVSPropertyOp5
 70
     1
102
RTVSPropertyOp6
 70
     1
102
RTVSPropertyOp7
 70
     1
102
RTVSPropertyOp8
 70
     1
102
RTVSPropertyOp9
 70
     1
102
RTVSPropertyOp10
 70
     1
102
RTVSPropertyOp11
 70
     1
102
RTVSPropertyOp12
 70
     1
102
RTVSPropertyOp13
 70
     1
102
RTVSPropertyOp14
 70
     1
102
RTVSPropertyOp15
 70
     1
102
RTVSPropertyOp16
 70
     1
102
RTVSPropertyOp17
 70
     1
102
RTVSPropertyOp18
 70
     1
102
RTVSPropertyOp19
 70
     1
102
RTVSPropertyOp20
 70
     1
102
RTVSPropertyOp21
 70
     1
102
RTVSPropertyOp22
 70
     1
102
RTVSPropertyOp23
 70
     1
102
RTVSPropertyOp24
 70
     1
102
RTVSPropertyOp25
 70
     1
102
RTVSPropertyOp26
 70
     1
102
RTVSPropertyOp27
 70
     1
102
RTVSPropertyOp28
 70
     1
102
RTVSPropertyOp29
 70
     1
102
RTVSPropertyOp30
 70
     1
102
RTVSPropertyOp31
 70
     1
102
RTVSPropertyOp32
 70
     1
102
RTVSPropertyOp33
 70
     1
102
RTVSPropertyOp34
 70
     1
102
RTVSPropertyOp35
 70
     1
102
RTVSPropertyOp36
 70
     1
102
RTVSPropertyOp37
 70
     1
102
RTVSPropertyOp38
 70
     1
102
RTVSPropertyOp39
 70
     1
102
RTVSPropertyOp40
 70
     1
102
RTVSPropertyOp41
 70
     1
102
RTVSPropertyOp42
 70
     1
102
RTVSPropertyOp43
 70
     1
102
RTVSPropertyOp44
 70
     1
102
RTVSPropertyOp45
 70
     1
102
RTVSPropertyOp46
 70
     1
102
RTVSPropertyOp47
 70
     1
102
RTVSPropertyOp48
 70
     1
102
RTVSPropertyOp49
 70
     1
102
RTVSPropertyOp50
 70
     1
102
RTVSPropertyOp51
 70
     0
102
RTVSPropertyOp52
 70
     0
102
RTVSPropertyOp53
 70
     1
102
RTVSPropertyOp54
 70
     1
102
RTVSPropertyOp55
 70
     1
102
RTVSPropertyOp56
 70
     1
102
RTVSPropertyOp57
 70
     1
102
RTVSPropertyOp58
 70
     1
102
RTVSPropertyOp59
 70
     1
102
RTVSPropertyOp60
 70
     1
102
RTVSPropertyOp61
 70
     1
102
RTVSPropertyOp62
 70
     1
  0
XRECORD
  5
130D
102
{ACAD_REACTORS
330
130C
102
}
330
130C
100
AcDbXrecord
280
     1
102
RTVSPost2010Prop28
280
     0
102
RTVSPost2010PropOp28
 70
     1
102
RTVSPost2010Prop29
280
     1
102
RTVSPost2010PropOp29
 70
     1
102
RTVSPost2010Prop30
280
     1
102
RTVSPost2010PropOp30
 70
     1
102
RTVSPost2010Prop31
280
     0
102
RTVSPost2010PropOp31
 70
     1
102
RTVSPost2010Prop32
280
     0
102
RTVSPost2010PropOp32
 70
     1
102
RTVSPost2010Prop33
280
     0
102
RTVSPost2010PropOp33
 70
     1
102
RTVSPost2010Prop34
280
     0
102
RTVSPost2010PropOp34
 70
     1
102
RTVSPost2010Prop35
280
     0
102
RTVSPost2010PropOp35
 70
     1
102
RTVSPost2010Prop36
280
     0
102
RTVSPost2010PropOp36
 70
     1
102
RTVSPost2010Prop37
 90
       50
102
RTVSPost2010PropOp37
 70
     1
102
RTVSPost2010Prop38
140
0.0
102
RTVSPost2010PropOp38
 70
     1
102
RTVSPost2010Prop39
140
1.0
102
RTVSPost2010PropOp39
 70
     1
102
RTVSPost2010Prop40
 90
        0
102
RTVSPost2010PropOp40
 70
     1
102
RTVSPost2010Prop41ColorIndex
 90
       18
102
RTVSPost2010Prop41ColorRGB
 90
        0
102
RTVSPost2010PropOp41
 70
     1
102
RTVSPost2010Prop42
 90
       50
102
RTVSPost2010PropOp42
 70
     1
102
RTVSPost2010Prop43
 90
        3
102
RTVSPost2010PropOp43
 70
     1
102
RTVSPost2010Prop44ColorIndex
 90
        5
102
RTVSPost2010Prop44ColorRGB
 90
      255
102
RTVSPost2010PropOp44
 70
     1
102
RTVSPost2010Prop45
280
     0
102
RTVSPost2010PropOp45
 70
     1
102
RTVSPost2010Prop46
 90
       50
102
RTVSPost2010PropOp46
 70
     1
102
RTVSPost2010Prop47
 90
       50
102
RTVSPost2010PropOp47
 70
     1
102
RTVSPost2010Prop48
 90
       50
102
RTVSPost2010PropOp48
 70
     1
102
RTVSPost2010Prop49
280
     0
102
RTVSPost2010PropOp49
 70
     1
102
RTVSPost2010Prop50
 90
       50
102
RTVSPost2010PropOp50
 70
     1
102
RTVSPost2010Prop51ColorIndex
 90
      256
102
RTVSPost2010Prop51ColorRGB
 90
-16777216
102
RTVSPost2010PropOp51
 70
     0
102
RTVSPost2010Prop52
140
1.0
102
RTVSPost2010PropOp52
 70
     0
102
RTVSPost2010Prop53
 90
        2
102
RTVSPost2010PropOp53
 70
     1
102
RTVSPost2010Prop54
  1
strokes_ogs.tif
102
RTVSPost2010PropOp54
 70
     1
102
RTVSPost2010Prop55
280
     0
102
RTVSPost2010PropOp55
 70
     1
102
RTVSPost2010Prop56
140
1.0
102
RTVSPost2010PropOp56
 70
     1
102
RTVSPost2010Prop57
140
1.0
102
RTVSPost2010PropOp57
 70
     1
102
RTVSPropertyOp0
 70
     1
102
RTVSPropertyOp1
 70
     1
102
RTVSPropertyOp2
 70
     1
102
RTVSPropertyOp3
 70
     1
102
RTVSPropertyOp4
 70
     1
102
RTVSPropertyOp5
 70
     1
102
RTVSPropertyOp6
 70
     1
102
RTVSPropertyOp7
 70
     1
102
RTVSPropertyOp8
 70
     1
102
RTVSPropertyOp9
 70
     1
102
RTVSPropertyOp10
 70
     1
102
RTVSPropertyOp11
 70
     1
102
RTVSPropertyOp12
 70
     1
102
RTVSPropertyOp13
 70
     1
102
RTVSPropertyOp14
 70
     1
102
RTVSPropertyOp15
 70
     1
102
RTVSPropertyOp16
 70
     1
102
RTVSPropertyOp17
 70
     1
102
RTVSPropertyOp18
 70
     1
102
RTVSPropertyOp19
 70
     1
102
RTVSPropertyOp20
 70
     1
102
RTVSPropertyOp21
 70
     1
102
RTVSPropertyOp22
 70
     1
102
RTVSPropertyOp23
 70
     1
102
RTVSPropertyOp24
 70
     1
102
RTVSPropertyOp25
 70
     1
102
RTVSPropertyOp26
 70
     1
102
RTVSPropertyOp27
 70
     1
102
RTVSPropertyOp28
 70
     1
102
RTVSPropertyOp29
 70
     1
102
RTVSPropertyOp30
 70
     1
102
RTVSPropertyOp31
 70
     1
102
RTVSPropertyOp32
 70
     1
102
RTVSPropertyOp33
 70
     1
102
RTVSPropertyOp34
 70
     1
102
RTVSPropertyOp35
 70
     1
102
RTVSPropertyOp36
 70
     1
102
RTVSPropertyOp37
 70
     1
102
RTVSPropertyOp38
 70
     1
102
RTVSPropertyOp39
 70
     1
102
RTVSPropertyOp40
 70
     1
102
RTVSPropertyOp41
 70
     1
102
RTVSPropertyOp42
 70
     1
102
RTVSPropertyOp43
 70
     1
102
RTVSPropertyOp44
 70
     1
102
RTVSPropertyOp45
 70
     1
102
RTVSPropertyOp46
 70
     1
102
RTVSPropertyOp47
 70
     1
102
RTVSPropertyOp48
 70
     1
102
RTVSPropertyOp49
 70
     1
102
RTVSPropertyOp50
 70
     1
102
RTVSPropertyOp51
 70
     0
102
RTVSPropertyOp52
 70
     0
102
RTVSPropertyOp53
 70
     1
102
RTVSPropertyOp54
 70
     1
102
RTVSPropertyOp55
 70
     1
102
RTVSPropertyOp56
 70
     1
102
RTVSPropertyOp57
 70
     1
102
RTVSPropertyOp58
 70
     1
102
RTVSPropertyOp59
 70
     1
102
RTVSPropertyOp60
 70
     1
102
RTVSPropertyOp61
 70
     1
102
RTVSPropertyOp62
 70
     1
  0
XRECORD
  5
1327
102
{ACAD_REACTORS
330
1326
102
}
330
1326
100
AcDbXrecord
280
     1
102
RTVSPost2010Prop28
280
     0
102
RTVSPost2010PropOp28
 70
     0
102
RTVSPost2010Prop29
280
     1
102
RTVSPost2010PropOp29
 70
     0
102
RTVSPost2010Prop30
280
     1
102
RTVSPost2010PropOp30
 70
     0
102
RTVSPost2010Prop31
280
     0
102
RTVSPost2010PropOp31
 70
     0
102
RTVSPost2010Prop32
280
     0
102
RTVSPost2010PropOp32
 70
     0
102
RTVSPost2010Prop33
280
     0
102
RTVSPost2010PropOp33
 70
     0
102
RTVSPost2010Prop34
280
     0
102
RTVSPost2010PropOp34
 70
     0
102
RTVSPost2010Prop35
280
     0
102
RTVSPost2010PropOp35
 70
     0
102
RTVSPost2010Prop36
280
     0
102
RTVSPost2010PropOp36
 70
     0
102
RTVSPost2010Prop37
 90
       50
102
RTVSPost2010PropOp37
 70
     0
102
RTVSPost2010Prop38
140
0.0
102
RTVSPost2010PropOp38
 70
     0
102
RTVSPost2010Prop39
140
1.0
102
RTVSPost2010PropOp39
 70
     0
102
RTVSPost2010Prop40
 90
        0
102
RTVSPost2010PropOp40
 70
     0
102
RTVSPost2010Prop41ColorIndex
 90
       18
102
RTVSPost2010Prop41ColorRGB
 90
        0
102
RTVSPost2010PropOp41
 70
     0
102
RTVSPost2010Prop42
 90
       50
102
RTVSPost2010PropOp42
 70
     0
102
RTVSPost2010Prop43
 90
        3
102
RTVSPost2010PropOp43
 70
     0
102
RTVSPost2010Prop44ColorIndex
 90
        5
102
RTVSPost2010Prop44ColorRGB
 90
      255
102
RTVSPost2010PropOp44
 70
     0
102
RTVSPost2010Prop45
280
     0
102
RTVSPost2010PropOp45
 70
     0
102
RTVSPost2010Prop46
 90
       50
102
RTVSPost2010PropOp46
 70
     0
102
RTVSPost2010Prop47
 90
       50
102
RTVSPost2010PropOp47
 70
     0
102
RTVSPost2010Prop48
 90
       50
102
RTVSPost2010PropOp48
 70
     0
102
RTVSPost2010Prop49
280
     0
102
RTVSPost2010PropOp49
 70
     0
102
RTVSPost2010Prop50
 90
       50
102
RTVSPost2010PropOp50
 70
     0
102
RTVSPost2010Prop51ColorIndex
 90
      256
102
RTVSPost2010Prop51ColorRGB
 90
-16777216
102
RTVSPost2010PropOp51
 70
     0
102
RTVSPost2010Prop52
140
1.0
102
RTVSPost2010PropOp52
 70
     0
102
RTVSPost2010Prop53
 90
        2
102
RTVSPost2010PropOp53
 70
     0
102
RTVSPost2010Prop54
  1
strokes_ogs.tif
102
RTVSPost2010PropOp54
 70
     0
102
RTVSPost2010Prop55
280
     0
102
RTVSPost2010PropOp55
 70
     0
102
RTVSPost2010Prop56
140
1.0
102
RTVSPost2010PropOp56
 70
     0
102
RTVSPost2010Prop57
140
1.0
102
RTVSPost2010PropOp57
 70
     0
102
RTVSPropertyOp0
 70
     0
102
RTVSPropertyOp1
 70
     0
102
RTVSPropertyOp2
 70
     0
102
RTVSPropertyOp3
 70
     0
102
RTVSPropertyOp4
 70
     0
102
RTVSPropertyOp5
 70
     0
102
RTVSPropertyOp6
 70
     0
102
RTVSPropertyOp7
 70
     0
102
RTVSPropertyOp8
 70
     0
102
RTVSPropertyOp9
 70
     0
102
RTVSPropertyOp10
 70
     0
102
RTVSPropertyOp11
 70
     0
102
RTVSPropertyOp12
 70
     0
102
RTVSPropertyOp13
 70
     0
102
RTVSPropertyOp14
 70
     2
102
RTVSPropertyOp15
 70
     0
102
RTVSPropertyOp16
 70
     0
102
RTVSPropertyOp17
 70
     0
102
RTVSPropertyOp18
 70
     0
102
RTVSPropertyOp19
 70
     0
102
RTVSPropertyOp20
 70
     0
102
RTVSPropertyOp21
 70
     0
102
RTVSPropertyOp22
 70
     0
102
RTVSPropertyOp23
 70
     0
102
RTVSPropertyOp24
 70
     0
102
RTVSPropertyOp25
 70
     0
102
RTVSPropertyOp26
 70
     0
102
RTVSPropertyOp27
 70
     0
102
RTVSPropertyOp28
 70
     0
102
RTVSPropertyOp29
 70
     0
102
RTVSPropertyOp30
 70
     0
102
RTVSPropertyOp31
 70
     0
102
RTVSPropertyOp32
 70
     0
102
RTVSPropertyOp33
 70
     0
102
RTVSPropertyOp34
 70
     0
102
RTVSPropertyOp35
 70
     0
102
RTVSPropertyOp36
 70
     0
102
RTVSPropertyOp37
 70
     0
102
RTVSPropertyOp38
 70
     0
102
RTVSPropertyOp39
 70
     0
102
RTVSPropertyOp40
 70
     0
102
RTVSPropertyOp41
 70
     0
102
RTVSPropertyOp42
 70
     0
102
RTVSPropertyOp43
 70
     0
102
RTVSPropertyOp44
 70
     0
102
RTVSPropertyOp45
 70
     0
102
RTVSPropertyOp46
 70
     0
102
RTVSPropertyOp47
 70
     0
102
RTVSPropertyOp48
 70
     0
102
RTVSPropertyOp49
 70
     0
102
RTVSPropertyOp50
 70
     0
102
RTVSPropertyOp51
 70
     0
102
RTVSPropertyOp52
 70
     0
102
RTVSPropertyOp53
 70
     0
102
RTVSPropertyOp54
 70
     0
102
RTVSPropertyOp55
 70
     0
102
RTVSPropertyOp56
 70
     0
102
RTVSPropertyOp57
 70
     0
102
RTVSPropertyOp58
 70
     1
102
RTVSPropertyOp59
 70
     1
102
RTVSPropertyOp60
 70
     1
102
RTVSPropertyOp61
 70
     1
102
RTVSPropertyOp62
 70
     1
  0
XRECORD
  5
1315
102
{ACAD_REACTORS
330
1314
102
}
330
1314
100
AcDbXrecord
280
     1
102
RTVSPost2010Prop28
280
     0
102
RTVSPost2010PropOp28
 70
     1
102
RTVSPost2010Prop29
280
     1
102
RTVSPost2010PropOp29
 70
     1
102
RTVSPost2010Prop30
280
     1
102
RTVSPost2010PropOp30
 70
     1
102
RTVSPost2010Prop31
280
     0
102
RTVSPost2010PropOp31
 70
     1
102
RTVSPost2010Prop32
280
     0
102
RTVSPost2010PropOp32
 70
     1
102
RTVSPost2010Prop33
280
     0
102
RTVSPost2010PropOp33
 70
     1
102
RTVSPost2010Prop34
280
     0
102
RTVSPost2010PropOp34
 70
     1
102
RTVSPost2010Prop35
280
     0
102
RTVSPost2010PropOp35
 70
     1
102
RTVSPost2010Prop36
280
     0
102
RTVSPost2010PropOp36
 70
     1
102
RTVSPost2010Prop37
 90
       50
102
RTVSPost2010PropOp37
 70
     1
102
RTVSPost2010Prop38
140
0.0
102
RTVSPost2010PropOp38
 70
     1
102
RTVSPost2010Prop39
140
1.0
102
RTVSPost2010PropOp39
 70
     1
102
RTVSPost2010Prop40
 90
        0
102
RTVSPost2010PropOp40
 70
     1
102
RTVSPost2010Prop41ColorIndex
 90
       18
102
RTVSPost2010Prop41ColorRGB
 90
        0
102
RTVSPost2010PropOp41
 70
     1
102
RTVSPost2010Prop42
 90
       50
102
RTVSPost2010PropOp42
 70
     1
102
RTVSPost2010Prop43
 90
        3
102
RTVSPost2010PropOp43
 70
     1
102
RTVSPost2010Prop44ColorIndex
 90
        5
102
RTVSPost2010Prop44ColorRGB
 90
      255
102
RTVSPost2010PropOp44
 70
     1
102
RTVSPost2010Prop45
280
     0
102
RTVSPost2010PropOp45
 70
     1
102
RTVSPost2010Prop46
 90
       50
102
RTVSPost2010PropOp46
 70
     1
102
RTVSPost2010Prop47
 90
       50
102
RTVSPost2010PropOp47
 70
     1
102
RTVSPost2010Prop48
 90
       50
102
RTVSPost2010PropOp48
 70
     1
102
RTVSPost2010Prop49
280
     0
102
RTVSPost2010PropOp49
 70
     1
102
RTVSPost2010Prop50
 90
       50
102
RTVSPost2010PropOp50
 70
     1
102
RTVSPost2010Prop51ColorIndex
 90
      256
102
RTVSPost2010Prop51ColorRGB
 90
-16777216
102
RTVSPost2010PropOp51
 70
     0
102
RTVSPost2010Prop52
140
1.0
102
RTVSPost2010PropOp52
 70
     0
102
RTVSPost2010Prop53
 90
        2
102
RTVSPost2010PropOp53
 70
     1
102
RTVSPost2010Prop54
  1
strokes_ogs.tif
102
RTVSPost2010PropOp54
 70
     1
102
RTVSPost2010Prop55
280
     0
102
RTVSPost2010PropOp55
 70
     1
102
RTVSPost2010Prop56
140
1.0
102
RTVSPost2010PropOp56
 70
     1
102
RTVSPost2010Prop57
140
1.0
102
RTVSPost2010PropOp57
 70
     1
102
RTVSPropertyOp0
 70
     1
102
RTVSPropertyOp1
 70
     1
102
RTVSPropertyOp2
 70
     1
102
RTVSPropertyOp3
 70
     1
102
RTVSPropertyOp4
 70
     1
102
RTVSPropertyOp5
 70
     1
102
RTVSPropertyOp6
 70
     1
102
RTVSPropertyOp7
 70
     1
102
RTVSPropertyOp8
 70
     1
102
RTVSPropertyOp9
 70
     1
102
RTVSPropertyOp10
 70
     1
102
RTVSPropertyOp11
 70
     1
102
RTVSPropertyOp12
 70
     1
102
RTVSPropertyOp13
 70
     1
102
RTVSPropertyOp14
 70
     1
102
RTVSPropertyOp15
 70
     1
102
RTVSPropertyOp16
 70
     1
102
RTVSPropertyOp17
 70
     1
102
RTVSPropertyOp18
 70
     1
102
RTVSPropertyOp19
 70
     1
102
RTVSPropertyOp20
 70
     1
102
RTVSPropertyOp21
 70
     1
102
RTVSPropertyOp22
 70
     1
102
RTVSPropertyOp23
 70
     1
102
RTVSPropertyOp24
 70
     1
102
RTVSPropertyOp25
 70
     1
102
RTVSPropertyOp26
 70
     1
102
RTVSPropertyOp27
 70
     1
102
RTVSPropertyOp28
 70
     1
102
RTVSPropertyOp29
 70
     1
102
RTVSPropertyOp30
 70
     1
102
RTVSPropertyOp31
 70
     1
102
RTVSPropertyOp32
 70
     1
102
RTVSPropertyOp33
 70
     1
102
RTVSPropertyOp34
 70
     1
102
RTVSPropertyOp35
 70
     1
102
RTVSPropertyOp36
 70
     1
102
RTVSPropertyOp37
 70
     1
102
RTVSPropertyOp38
 70
     1
102
RTVSPropertyOp39
 70
     1
102
RTVSPropertyOp40
 70
     1
102
RTVSPropertyOp41
 70
     1
102
RTVSPropertyOp42
 70
     1
102
RTVSPropertyOp43
 70
     1
102
RTVSPropertyOp44
 70
     1
102
RTVSPropertyOp45
 70
     1
102
RTVSPropertyOp46
 70
     1
102
RTVSPropertyOp47
 70
     1
102
RTVSPropertyOp48
 70
     1
102
RTVSPropertyOp49
 70
     1
102
RTVSPropertyOp50
 70
     1
102
RTVSPropertyOp51
 70
     0
102
RTVSPropertyOp52
 70
     0
102
RTVSPropertyOp53
 70
     1
102
RTVSPropertyOp54
 70
     1
102
RTVSPropertyOp55
 70
     1
102
RTVSPropertyOp56
 70
     1
102
RTVSPropertyOp57
 70
     1
102
RTVSPropertyOp58
 70
     1
102
RTVSPropertyOp59
 70
     1
102
RTVSPropertyOp60
 70
     1
102
RTVSPropertyOp61
 70
     1
102
RTVSPropertyOp62
 70
     1
  0
XRECORD
  5
12F9
102
{ACAD_REACTORS
330
12F8
102
}
330
12F8
100
AcDbXrecord
280
     1
102
RTVSPost2010Prop28
280
     0
102
RTVSPost2010PropOp28
 70
     1
102
RTVSPost2010Prop29
280
     1
102
RTVSPost2010PropOp29
 70
     1
102
RTVSPost2010Prop30
280
     1
102
RTVSPost2010PropOp30
 70
     1
102
RTVSPost2010Prop31
280
     0
102
RTVSPost2010PropOp31
 70
     1
102
RTVSPost2010Prop32
280
     0
102
RTVSPost2010PropOp32
 70
     1
102
RTVSPost2010Prop33
280
     0
102
RTVSPost2010PropOp33
 70
     1
102
RTVSPost2010Prop34
280
     0
102
RTVSPost2010PropOp34
 70
     1
102
RTVSPost2010Prop35
280
     0
102
RTVSPost2010PropOp35
 70
     1
102
RTVSPost2010Prop36
280
     0
102
RTVSPost2010PropOp36
 70
     1
102
RTVSPost2010Prop37
 90
       50
102
RTVSPost2010PropOp37
 70
     1
102
RTVSPost2010Prop38
140
0.0
102
RTVSPost2010PropOp38
 70
     1
102
RTVSPost2010Prop39
140
1.0
102
RTVSPost2010PropOp39
 70
     1
102
RTVSPost2010Prop40
 90
        0
102
RTVSPost2010PropOp40
 70
     1
102
RTVSPost2010Prop41ColorIndex
 90
       18
102
RTVSPost2010Prop41ColorRGB
 90
        0
102
RTVSPost2010PropOp41
 70
     1
102
RTVSPost2010Prop42
 90
       50
102
RTVSPost2010PropOp42
 70
     1
102
RTVSPost2010Prop43
 90
        3
102
RTVSPost2010PropOp43
 70
     1
102
RTVSPost2010Prop44ColorIndex
 90
        5
102
RTVSPost2010Prop44ColorRGB
 90
      255
102
RTVSPost2010PropOp44
 70
     1
102
RTVSPost2010Prop45
280
     0
102
RTVSPost2010PropOp45
 70
     1
102
RTVSPost2010Prop46
 90
       50
102
RTVSPost2010PropOp46
 70
     1
102
RTVSPost2010Prop47
 90
       50
102
RTVSPost2010PropOp47
 70
     1
102
RTVSPost2010Prop48
 90
       50
102
RTVSPost2010PropOp48
 70
     1
102
RTVSPost2010Prop49
280
     0
102
RTVSPost2010PropOp49
 70
     1
102
RTVSPost2010Prop50
 90
       50
102
RTVSPost2010PropOp50
 70
     1
102
RTVSPost2010Prop51ColorIndex
 90
      256
102
RTVSPost2010Prop51ColorRGB
 90
-16777216
102
RTVSPost2010PropOp51
 70
     0
102
RTVSPost2010Prop52
140
1.0
102
RTVSPost2010PropOp52
 70
     0
102
RTVSPost2010Prop53
 90
        2
102
RTVSPost2010PropOp53
 70
     1
102
RTVSPost2010Prop54
  1
strokes_ogs.tif
102
RTVSPost2010PropOp54
 70
     1
102
RTVSPost2010Prop55
280
     0
102
RTVSPost2010PropOp55
 70
     1
102
RTVSPost2010Prop56
140
1.0
102
RTVSPost2010PropOp56
 70
     1
102
RTVSPost2010Prop57
140
1.0
102
RTVSPost2010PropOp57
 70
     1
102
RTVSPropertyOp0
 70
     1
102
RTVSPropertyOp1
 70
     1
102
RTVSPropertyOp2
 70
     1
102
RTVSPropertyOp3
 70
     1
102
RTVSPropertyOp4
 70
     1
102
RTVSPropertyOp5
 70
     1
102
RTVSPropertyOp6
 70
     1
102
RTVSPropertyOp7
 70
     1
102
RTVSPropertyOp8
 70
     1
102
RTVSPropertyOp9
 70
     1
102
RTVSPropertyOp10
 70
     1
102
RTVSPropertyOp11
 70
     1
102
RTVSPropertyOp12
 70
     1
102
RTVSPropertyOp13
 70
     1
102
RTVSPropertyOp14
 70
     1
102
RTVSPropertyOp15
 70
     1
102
RTVSPropertyOp16
 70
     1
102
RTVSPropertyOp17
 70
     1
102
RTVSPropertyOp18
 70
     1
102
RTVSPropertyOp19
 70
     1
102
RTVSPropertyOp20
 70
     1
102
RTVSPropertyOp21
 70
     1
102
RTVSPropertyOp22
 70
     1
102
RTVSPropertyOp23
 70
     1
102
RTVSPropertyOp24
 70
     1
102
RTVSPropertyOp25
 70
     1
102
RTVSPropertyOp26
 70
     1
102
RTVSPropertyOp27
 70
     1
102
RTVSPropertyOp28
 70
     1
102
RTVSPropertyOp29
 70
     1
102
RTVSPropertyOp30
 70
     1
102
RTVSPropertyOp31
 70
     1
102
RTVSPropertyOp32
 70
     1
102
RTVSPropertyOp33
 70
     1
102
RTVSPropertyOp34
 70
     1
102
RTVSPropertyOp35
 70
     1
102
RTVSPropertyOp36
 70
     1
102
RTVSPropertyOp37
 70
     1
102
RTVSPropertyOp38
 70
     1
102
RTVSPropertyOp39
 70
     1
102
RTVSPropertyOp40
 70
     1
102
RTVSPropertyOp41
 70
     1
102
RTVSPropertyOp42
 70
     1
102
RTVSPropertyOp43
 70
     1
102
RTVSPropertyOp44
 70
     1
102
RTVSPropertyOp45
 70
     1
102
RTVSPropertyOp46
 70
     1
102
RTVSPropertyOp47
 70
     1
102
RTVSPropertyOp48
 70
     1
102
RTVSPropertyOp49
 70
     1
102
RTVSPropertyOp50
 70
     1
102
RTVSPropertyOp51
 70
     0
102
RTVSPropertyOp52
 70
     0
102
RTVSPropertyOp53
 70
     1
102
RTVSPropertyOp54
 70
     1
102
RTVSPropertyOp55
 70
     1
102
RTVSPropertyOp56
 70
     1
102
RTVSPropertyOp57
 70
     1
102
RTVSPropertyOp58
 70
     1
102
RTVSPropertyOp59
 70
     1
102
RTVSPropertyOp60
 70
     1
102
RTVSPropertyOp61
 70
     1
102
RTVSPropertyOp62
 70
     1
  0
XRECORD
  5
12FB
102
{ACAD_REACTORS
330
12FA
102
}
330
12FA
100
AcDbXrecord
280
     1
102
RTVSPost2010Prop28
280
     0
102
RTVSPost2010PropOp28
 70
     1
102
RTVSPost2010Prop29
280
     1
102
RTVSPost2010PropOp29
 70
     1
102
RTVSPost2010Prop30
280
     1
102
RTVSPost2010PropOp30
 70
     1
102
RTVSPost2010Prop31
280
     0
102
RTVSPost2010PropOp31
 70
     1
102
RTVSPost2010Prop32
280
     0
102
RTVSPost2010PropOp32
 70
     1
102
RTVSPost2010Prop33
280
     0
102
RTVSPost2010PropOp33
 70
     1
102
RTVSPost2010Prop34
280
     0
102
RTVSPost2010PropOp34
 70
     1
102
RTVSPost2010Prop35
280
     0
102
RTVSPost2010PropOp35
 70
     1
102
RTVSPost2010Prop36
280
     0
102
RTVSPost2010PropOp36
 70
     1
102
RTVSPost2010Prop37
 90
       50
102
RTVSPost2010PropOp37
 70
     1
102
RTVSPost2010Prop38
140
0.0
102
RTVSPost2010PropOp38
 70
     1
102
RTVSPost2010Prop39
140
1.0
102
RTVSPost2010PropOp39
 70
     1
102
RTVSPost2010Prop40
 90
        0
102
RTVSPost2010PropOp40
 70
     1
102
RTVSPost2010Prop41ColorIndex
 90
       18
102
RTVSPost2010Prop41ColorRGB
 90
        0
102
RTVSPost2010PropOp41
 70
     1
102
RTVSPost2010Prop42
 90
       50
102
RTVSPost2010PropOp42
 70
     1
102
RTVSPost2010Prop43
 90
        3
102
RTVSPost2010PropOp43
 70
     1
102
RTVSPost2010Prop44ColorIndex
 90
        5
102
RTVSPost2010Prop44ColorRGB
 90
      255
102
RTVSPost2010PropOp44
 70
     1
102
RTVSPost2010Prop45
280
     0
102
RTVSPost2010PropOp45
 70
     1
102
RTVSPost2010Prop46
 90
       50
102
RTVSPost2010PropOp46
 70
     1
102
RTVSPost2010Prop47
 90
       50
102
RTVSPost2010PropOp47
 70
     1
102
RTVSPost2010Prop48
 90
       50
102
RTVSPost2010PropOp48
 70
     1
102
RTVSPost2010Prop49
280
     0
102
RTVSPost2010PropOp49
 70
     1
102
RTVSPost2010Prop50
 90
       50
102
RTVSPost2010PropOp50
 70
     1
102
RTVSPost2010Prop51ColorIndex
 90
      256
102
RTVSPost2010Prop51ColorRGB
 90
-16777216
102
RTVSPost2010PropOp51
 70
     0
102
RTVSPost2010Prop52
140
1.0
102
RTVSPost2010PropOp52
 70
     0
102
RTVSPost2010Prop53
 90
        2
102
RTVSPost2010PropOp53
 70
     1
102
RTVSPost2010Prop54
  1
strokes_ogs.tif
102
RTVSPost2010PropOp54
 70
     1
102
RTVSPost2010Prop55
280
     0
102
RTVSPost2010PropOp55
 70
     1
102
RTVSPost2010Prop56
140
1.0
102
RTVSPost2010PropOp56
 70
     1
102
RTVSPost2010Prop57
140
1.0
102
RTVSPost2010PropOp57
 70
     1
102
RTVSPropertyOp0
 70
     1
102
RTVSPropertyOp1
 70
     1
102
RTVSPropertyOp2
 70
     1
102
RTVSPropertyOp3
 70
     1
102
RTVSPropertyOp4
 70
     1
102
RTVSPropertyOp5
 70
     1
102
RTVSPropertyOp6
 70
     1
102
RTVSPropertyOp7
 70
     1
102
RTVSPropertyOp8
 70
     1
102
RTVSPropertyOp9
 70
     1
102
RTVSPropertyOp10
 70
     1
102
RTVSPropertyOp11
 70
     1
102
RTVSPropertyOp12
 70
     1
102
RTVSPropertyOp13
 70
     1
102
RTVSPropertyOp14
 70
     1
102
RTVSPropertyOp15
 70
     1
102
RTVSPropertyOp16
 70
     1
102
RTVSPropertyOp17
 70
     1
102
RTVSPropertyOp18
 70
     1
102
RTVSPropertyOp19
 70
     1
102
RTVSPropertyOp20
 70
     1
102
RTVSPropertyOp21
 70
     1
102
RTVSPropertyOp22
 70
     1
102
RTVSPropertyOp23
 70
     1
102
RTVSPropertyOp24
 70
     1
102
RTVSPropertyOp25
 70
     1
102
RTVSPropertyOp26
 70
     1
102
RTVSPropertyOp27
 70
     1
102
RTVSPropertyOp28
 70
     1
102
RTVSPropertyOp29
 70
     1
102
RTVSPropertyOp30
 70
     1
102
RTVSPropertyOp31
 70
     1
102
RTVSPropertyOp32
 70
     1
102
RTVSPropertyOp33
 70
     1
102
RTVSPropertyOp34
 70
     1
102
RTVSPropertyOp35
 70
     1
102
RTVSPropertyOp36
 70
     1
102
RTVSPropertyOp37
 70
     1
102
RTVSPropertyOp38
 70
     1
102
RTVSPropertyOp39
 70
     1
102
RTVSPropertyOp40
 70
     1
102
RTVSPropertyOp41
 70
     1
102
RTVSPropertyOp42
 70
     1
102
RTVSPropertyOp43
 70
     1
102
RTVSPropertyOp44
 70
     1
102
RTVSPropertyOp45
 70
     1
102
RTVSPropertyOp46
 70
     1
102
RTVSPropertyOp47
 70
     1
102
RTVSPropertyOp48
 70
     1
102
RTVSPropertyOp49
 70
     1
102
RTVSPropertyOp50
 70
     1
102
RTVSPropertyOp51
 70
     0
102
RTVSPropertyOp52
 70
     0
102
RTVSPropertyOp53
 70
     1
102
RTVSPropertyOp54
 70
     1
102
RTVSPropertyOp55
 70
     1
102
RTVSPropertyOp56
 70
     1
102
RTVSPropertyOp57
 70
     1
102
RTVSPropertyOp58
 70
     1
102
RTVSPropertyOp59
 70
     1
102
RTVSPropertyOp60
 70
     1
102
RTVSPropertyOp61
 70
     1
102
RTVSPropertyOp62
 70
     1
  0
XRECORD
  5
12FD
102
{ACAD_REACTORS
330
12FC
102
}
330
12FC
100
AcDbXrecord
280
     1
102
RTVSPost2010Prop28
280
     0
102
RTVSPost2010PropOp28
 70
     1
102
RTVSPost2010Prop29
280
     1
102
RTVSPost2010PropOp29
 70
     1
102
RTVSPost2010Prop30
280
     1
102
RTVSPost2010PropOp30
 70
     1
102
RTVSPost2010Prop31
280
     0
102
RTVSPost2010PropOp31
 70
     1
102
RTVSPost2010Prop32
280
     0
102
RTVSPost2010PropOp32
 70
     1
102
RTVSPost2010Prop33
280
     0
102
RTVSPost2010PropOp33
 70
     1
102
RTVSPost2010Prop34
280
     0
102
RTVSPost2010PropOp34
 70
     1
102
RTVSPost2010Prop35
280
     0
102
RTVSPost2010PropOp35
 70
     1
102
RTVSPost2010Prop36
280
     0
102
RTVSPost2010PropOp36
 70
     1
102
RTVSPost2010Prop37
 90
       50
102
RTVSPost2010PropOp37
 70
     1
102
RTVSPost2010Prop38
140
0.0
102
RTVSPost2010PropOp38
 70
     1
102
RTVSPost2010Prop39
140
1.0
102
RTVSPost2010PropOp39
 70
     1
102
RTVSPost2010Prop40
 90
        0
102
RTVSPost2010PropOp40
 70
     1
102
RTVSPost2010Prop41ColorIndex
 90
       18
102
RTVSPost2010Prop41ColorRGB
 90
        0
102
RTVSPost2010PropOp41
 70
     1
102
RTVSPost2010Prop42
 90
       50
102
RTVSPost2010PropOp42
 70
     1
102
RTVSPost2010Prop43
 90
        3
102
RTVSPost2010PropOp43
 70
     1
102
RTVSPost2010Prop44ColorIndex
 90
        5
102
RTVSPost2010Prop44ColorRGB
 90
      255
102
RTVSPost2010PropOp44
 70
     1
102
RTVSPost2010Prop45
280
     0
102
RTVSPost2010PropOp45
 70
     1
102
RTVSPost2010Prop46
 90
       50
102
RTVSPost2010PropOp46
 70
     1
102
RTVSPost2010Prop47
 90
       50
102
RTVSPost2010PropOp47
 70
     1
102
RTVSPost2010Prop48
 90
       50
102
RTVSPost2010PropOp48
 70
     1
102
RTVSPost2010Prop49
280
     0
102
RTVSPost2010PropOp49
 70
     1
102
RTVSPost2010Prop50
 90
       50
102
RTVSPost2010PropOp50
 70
     1
102
RTVSPost2010Prop51ColorIndex
 90
      256
102
RTVSPost2010Prop51ColorRGB
 90
-16777216
102
RTVSPost2010PropOp51
 70
     0
102
RTVSPost2010Prop52
140
1.0
102
RTVSPost2010PropOp52
 70
     0
102
RTVSPost2010Prop53
 90
        2
102
RTVSPost2010PropOp53
 70
     1
102
RTVSPost2010Prop54
  1
strokes_ogs.tif
102
RTVSPost2010PropOp54
 70
     1
102
RTVSPost2010Prop55
280
     0
102
RTVSPost2010PropOp55
 70
     1
102
RTVSPost2010Prop56
140
1.0
102
RTVSPost2010PropOp56
 70
     1
102
RTVSPost2010Prop57
140
1.0
102
RTVSPost2010PropOp57
 70
     1
102
RTVSPropertyOp0
 70
     1
102
RTVSPropertyOp1
 70
     1
102
RTVSPropertyOp2
 70
     1
102
RTVSPropertyOp3
 70
     1
102
RTVSPropertyOp4
 70
     1
102
RTVSPropertyOp5
 70
     1
102
RTVSPropertyOp6
 70
     1
102
RTVSPropertyOp7
 70
     1
102
RTVSPropertyOp8
 70
     1
102
RTVSPropertyOp9
 70
     1
102
RTVSPropertyOp10
 70
     1
102
RTVSPropertyOp11
 70
     1
102
RTVSPropertyOp12
 70
     1
102
RTVSPropertyOp13
 70
     1
102
RTVSPropertyOp14
 70
     1
102
RTVSPropertyOp15
 70
     1
102
RTVSPropertyOp16
 70
     1
102
RTVSPropertyOp17
 70
     1
102
RTVSPropertyOp18
 70
     1
102
RTVSPropertyOp19
 70
     1
102
RTVSPropertyOp20
 70
     1
102
RTVSPropertyOp21
 70
     1
102
RTVSPropertyOp22
 70
     1
102
RTVSPropertyOp23
 70
     1
102
RTVSPropertyOp24
 70
     1
102
RTVSPropertyOp25
 70
     1
102
RTVSPropertyOp26
 70
     1
102
RTVSPropertyOp27
 70
     1
102
RTVSPropertyOp28
 70
     1
102
RTVSPropertyOp29
 70
     1
102
RTVSPropertyOp30
 70
     1
102
RTVSPropertyOp31
 70
     1
102
RTVSPropertyOp32
 70
     1
102
RTVSPropertyOp33
 70
     1
102
RTVSPropertyOp34
 70
     1
102
RTVSPropertyOp35
 70
     1
102
RTVSPropertyOp36
 70
     1
102
RTVSPropertyOp37
 70
     1
102
RTVSPropertyOp38
 70
     1
102
RTVSPropertyOp39
 70
     1
102
RTVSPropertyOp40
 70
     1
102
RTVSPropertyOp41
 70
     1
102
RTVSPropertyOp42
 70
     1
102
RTVSPropertyOp43
 70
     1
102
RTVSPropertyOp44
 70
     1
102
RTVSPropertyOp45
 70
     1
102
RTVSPropertyOp46
 70
     1
102
RTVSPropertyOp47
 70
     1
102
RTVSPropertyOp48
 70
     1
102
RTVSPropertyOp49
 70
     1
102
RTVSPropertyOp50
 70
     1
102
RTVSPropertyOp51
 70
     0
102
RTVSPropertyOp52
 70
     0
102
RTVSPropertyOp53
 70
     1
102
RTVSPropertyOp54
 70
     1
102
RTVSPropertyOp55
 70
     1
102
RTVSPropertyOp56
 70
     1
102
RTVSPropertyOp57
 70
     1
102
RTVSPropertyOp58
 70
     1
102
RTVSPropertyOp59
 70
     1
102
RTVSPropertyOp60
 70
     1
102
RTVSPropertyOp61
 70
     1
102
RTVSPropertyOp62
 70
     1
  0
XRECORD
  5
12FF
102
{ACAD_REACTORS
330
12FE
102
}
330
12FE
100
AcDbXrecord
280
     1
102
RTVSPost2010Prop28
280
     0
102
RTVSPost2010PropOp28
 70
     1
102
RTVSPost2010Prop29
280
     1
102
RTVSPost2010PropOp29
 70
     1
102
RTVSPost2010Prop30
280
     1
102
RTVSPost2010PropOp30
 70
     1
102
RTVSPost2010Prop31
280
     0
102
RTVSPost2010PropOp31
 70
     1
102
RTVSPost2010Prop32
280
     0
102
RTVSPost2010PropOp32
 70
     1
102
RTVSPost2010Prop33
280
     0
102
RTVSPost2010PropOp33
 70
     1
102
RTVSPost2010Prop34
280
     0
102
RTVSPost2010PropOp34
 70
     1
102
RTVSPost2010Prop35
280
     0
102
RTVSPost2010PropOp35
 70
     1
102
RTVSPost2010Prop36
280
     0
102
RTVSPost2010PropOp36
 70
     1
102
RTVSPost2010Prop37
 90
       50
102
RTVSPost2010PropOp37
 70
     1
102
RTVSPost2010Prop38
140
0.0
102
RTVSPost2010PropOp38
 70
     1
102
RTVSPost2010Prop39
140
1.0
102
RTVSPost2010PropOp39
 70
     1
102
RTVSPost2010Prop40
 90
        0
102
RTVSPost2010PropOp40
 70
     1
102
RTVSPost2010Prop41ColorIndex
 90
       18
102
RTVSPost2010Prop41ColorRGB
 90
        0
102
RTVSPost2010PropOp41
 70
     1
102
RTVSPost2010Prop42
 90
       50
102
RTVSPost2010PropOp42
 70
     1
102
RTVSPost2010Prop43
 90
        3
102
RTVSPost2010PropOp43
 70
     1
102
RTVSPost2010Prop44ColorIndex
 90
        5
102
RTVSPost2010Prop44ColorRGB
 90
      255
102
RTVSPost2010PropOp44
 70
     1
102
RTVSPost2010Prop45
280
     0
102
RTVSPost2010PropOp45
 70
     1
102
RTVSPost2010Prop46
 90
       50
102
RTVSPost2010PropOp46
 70
     1
102
RTVSPost2010Prop47
 90
       50
102
RTVSPost2010PropOp47
 70
     1
102
RTVSPost2010Prop48
 90
       50
102
RTVSPost2010PropOp48
 70
     1
102
RTVSPost2010Prop49
280
     0
102
RTVSPost2010PropOp49
 70
     1
102
RTVSPost2010Prop50
 90
       50
102
RTVSPost2010PropOp50
 70
     1
102
RTVSPost2010Prop51ColorIndex
 90
      256
102
RTVSPost2010Prop51ColorRGB
 90
-16777216
102
RTVSPost2010PropOp51
 70
     0
102
RTVSPost2010Prop52
140
1.0
102
RTVSPost2010PropOp52
 70
     0
102
RTVSPost2010Prop53
 90
        2
102
RTVSPost2010PropOp53
 70
     1
102
RTVSPost2010Prop54
  1
strokes_ogs.tif
102
RTVSPost2010PropOp54
 70
     1
102
RTVSPost2010Prop55
280
     0
102
RTVSPost2010PropOp55
 70
     1
102
RTVSPost2010Prop56
140
1.0
102
RTVSPost2010PropOp56
 70
     1
102
RTVSPost2010Prop57
140
1.0
102
RTVSPost2010PropOp57
 70
     1
102
RTVSPropertyOp0
 70
     1
102
RTVSPropertyOp1
 70
     1
102
RTVSPropertyOp2
 70
     1
102
RTVSPropertyOp3
 70
     1
102
RTVSPropertyOp4
 70
     1
102
RTVSPropertyOp5
 70
     1
102
RTVSPropertyOp6
 70
     1
102
RTVSPropertyOp7
 70
     1
102
RTVSPropertyOp8
 70
     1
102
RTVSPropertyOp9
 70
     1
102
RTVSPropertyOp10
 70
     1
102
RTVSPropertyOp11
 70
     1
102
RTVSPropertyOp12
 70
     1
102
RTVSPropertyOp13
 70
     1
102
RTVSPropertyOp14
 70
     1
102
RTVSPropertyOp15
 70
     1
102
RTVSPropertyOp16
 70
     1
102
RTVSPropertyOp17
 70
     1
102
RTVSPropertyOp18
 70
     1
102
RTVSPropertyOp19
 70
     1
102
RTVSPropertyOp20
 70
     1
102
RTVSPropertyOp21
 70
     1
102
RTVSPropertyOp22
 70
     1
102
RTVSPropertyOp23
 70
     1
102
RTVSPropertyOp24
 70
     1
102
RTVSPropertyOp25
 70
     1
102
RTVSPropertyOp26
 70
     1
102
RTVSPropertyOp27
 70
     1
102
RTVSPropertyOp28
 70
     1
102
RTVSPropertyOp29
 70
     1
102
RTVSPropertyOp30
 70
     1
102
RTVSPropertyOp31
 70
     1
102
RTVSPropertyOp32
 70
     1
102
RTVSPropertyOp33
 70
     1
102
RTVSPropertyOp34
 70
     1
102
RTVSPropertyOp35
 70
     1
102
RTVSPropertyOp36
 70
     1
102
RTVSPropertyOp37
 70
     1
102
RTVSPropertyOp38
 70
     1
102
RTVSPropertyOp39
 70
     1
102
RTVSPropertyOp40
 70
     1
102
RTVSPropertyOp41
 70
     1
102
RTVSPropertyOp42
 70
     1
102
RTVSPropertyOp43
 70
     1
102
RTVSPropertyOp44
 70
     1
102
RTVSPropertyOp45
 70
     1
102
RTVSPropertyOp46
 70
     1
102
RTVSPropertyOp47
 70
     1
102
RTVSPropertyOp48
 70
     1
102
RTVSPropertyOp49
 70
     1
102
RTVSPropertyOp50
 70
     1
102
RTVSPropertyOp51
 70
     0
102
RTVSPropertyOp52
 70
     0
102
RTVSPropertyOp53
 70
     1
102
RTVSPropertyOp54
 70
     1
102
RTVSPropertyOp55
 70
     1
102
RTVSPropertyOp56
 70
     1
102
RTVSPropertyOp57
 70
     1
102
RTVSPropertyOp58
 70
     1
102
RTVSPropertyOp59
 70
     1
102
RTVSPropertyOp60
 70
     1
102
RTVSPropertyOp61
 70
     1
102
RTVSPropertyOp62
 70
     1
  0
XRECORD
  5
1307
102
{ACAD_REACTORS
330
1306
102
}
330
1306
100
AcDbXrecord
280
     1
102
RTVSPost2010Prop28
280
     0
102
RTVSPost2010PropOp28
 70
     1
102
RTVSPost2010Prop29
280
     1
102
RTVSPost2010PropOp29
 70
     1
102
RTVSPost2010Prop30
280
     1
102
RTVSPost2010PropOp30
 70
     1
102
RTVSPost2010Prop31
280
     0
102
RTVSPost2010PropOp31
 70
     1
102
RTVSPost2010Prop32
280
     0
102
RTVSPost2010PropOp32
 70
     1
102
RTVSPost2010Prop33
280
     0
102
RTVSPost2010PropOp33
 70
     1
102
RTVSPost2010Prop34
280
     0
102
RTVSPost2010PropOp34
 70
     1
102
RTVSPost2010Prop35
280
     0
102
RTVSPost2010PropOp35
 70
     1
102
RTVSPost2010Prop36
280
     0
102
RTVSPost2010PropOp36
 70
     1
102
RTVSPost2010Prop37
 90
       50
102
RTVSPost2010PropOp37
 70
     1
102
RTVSPost2010Prop38
140
0.0
102
RTVSPost2010PropOp38
 70
     1
102
RTVSPost2010Prop39
140
1.0
102
RTVSPost2010PropOp39
 70
     1
102
RTVSPost2010Prop40
 90
        0
102
RTVSPost2010PropOp40
 70
     1
102
RTVSPost2010Prop41ColorIndex
 90
       18
102
RTVSPost2010Prop41ColorRGB
 90
        0
102
RTVSPost2010PropOp41
 70
     1
102
RTVSPost2010Prop42
 90
       50
102
RTVSPost2010PropOp42
 70
     1
102
RTVSPost2010Prop43
 90
        3
102
RTVSPost2010PropOp43
 70
     1
102
RTVSPost2010Prop44ColorIndex
 90
        5
102
RTVSPost2010Prop44ColorRGB
 90
      255
102
RTVSPost2010PropOp44
 70
     1
102
RTVSPost2010Prop45
280
     0
102
RTVSPost2010PropOp45
 70
     1
102
RTVSPost2010Prop46
 90
       50
102
RTVSPost2010PropOp46
 70
     1
102
RTVSPost2010Prop47
 90
       50
102
RTVSPost2010PropOp47
 70
     1
102
RTVSPost2010Prop48
 90
       50
102
RTVSPost2010PropOp48
 70
     1
102
RTVSPost2010Prop49
280
     0
102
RTVSPost2010PropOp49
 70
     1
102
RTVSPost2010Prop50
 90
       50
102
RTVSPost2010PropOp50
 70
     1
102
RTVSPost2010Prop51ColorIndex
 90
      256
102
RTVSPost2010Prop51ColorRGB
 90
-16777216
102
RTVSPost2010PropOp51
 70
     0
102
RTVSPost2010Prop52
140
1.0
102
RTVSPost2010PropOp52
 70
     0
102
RTVSPost2010Prop53
 90
        2
102
RTVSPost2010PropOp53
 70
     1
102
RTVSPost2010Prop54
  1
strokes_ogs.tif
102
RTVSPost2010PropOp54
 70
     1
102
RTVSPost2010Prop55
280
     0
102
RTVSPost2010PropOp55
 70
     1
102
RTVSPost2010Prop56
140
1.0
102
RTVSPost2010PropOp56
 70
     1
102
RTVSPost2010Prop57
140
1.0
102
RTVSPost2010PropOp57
 70
     1
102
RTVSPropertyOp0
 70
     1
102
RTVSPropertyOp1
 70
     1
102
RTVSPropertyOp2
 70
     1
102
RTVSPropertyOp3
 70
     1
102
RTVSPropertyOp4
 70
     1
102
RTVSPropertyOp5
 70
     1
102
RTVSPropertyOp6
 70
     1
102
RTVSPropertyOp7
 70
     1
102
RTVSPropertyOp8
 70
     1
102
RTVSPropertyOp9
 70
     1
102
RTVSPropertyOp10
 70
     1
102
RTVSPropertyOp11
 70
     1
102
RTVSPropertyOp12
 70
     1
102
RTVSPropertyOp13
 70
     1
102
RTVSPropertyOp14
 70
     1
102
RTVSPropertyOp15
 70
     1
102
RTVSPropertyOp16
 70
     1
102
RTVSPropertyOp17
 70
     1
102
RTVSPropertyOp18
 70
     1
102
RTVSPropertyOp19
 70
     1
102
RTVSPropertyOp20
 70
     1
102
RTVSPropertyOp21
 70
     1
102
RTVSPropertyOp22
 70
     1
102
RTVSPropertyOp23
 70
     1
102
RTVSPropertyOp24
 70
     1
102
RTVSPropertyOp25
 70
     1
102
RTVSPropertyOp26
 70
     1
102
RTVSPropertyOp27
 70
     1
102
RTVSPropertyOp28
 70
     1
102
RTVSPropertyOp29
 70
     1
102
RTVSPropertyOp30
 70
     1
102
RTVSPropertyOp31
 70
     1
102
RTVSPropertyOp32
 70
     1
102
RTVSPropertyOp33
 70
     1
102
RTVSPropertyOp34
 70
     1
102
RTVSPropertyOp35
 70
     1
102
RTVSPropertyOp36
 70
     1
102
RTVSPropertyOp37
 70
     1
102
RTVSPropertyOp38
 70
     1
102
RTVSPropertyOp39
 70
     1
102
RTVSPropertyOp40
 70
     1
102
RTVSPropertyOp41
 70
     1
102
RTVSPropertyOp42
 70
     1
102
RTVSPropertyOp43
 70
     1
102
RTVSPropertyOp44
 70
     1
102
RTVSPropertyOp45
 70
     1
102
RTVSPropertyOp46
 70
     1
102
RTVSPropertyOp47
 70
     1
102
RTVSPropertyOp48
 70
     1
102
RTVSPropertyOp49
 70
     1
102
RTVSPropertyOp50
 70
     1
102
RTVSPropertyOp51
 70
     0
102
RTVSPropertyOp52
 70
     0
102
RTVSPropertyOp53
 70
     1
102
RTVSPropertyOp54
 70
     1
102
RTVSPropertyOp55
 70
     1
102
RTVSPropertyOp56
 70
     1
102
RTVSPropertyOp57
 70
     1
102
RTVSPropertyOp58
 70
     1
102
RTVSPropertyOp59
 70
     1
102
RTVSPropertyOp60
 70
     1
102
RTVSPropertyOp61
 70
     1
102
RTVSPropertyOp62
 70
     1
  0
XRECORD
  5
1323
102
{ACAD_REACTORS
330
1322
102
}
330
1322
100
AcDbXrecord
280
     1
102
RTVSPost2010Prop28
280
     0
102
RTVSPost2010PropOp28
 70
     0
102
RTVSPost2010Prop29
280
     1
102
RTVSPost2010PropOp29
 70
     0
102
RTVSPost2010Prop30
280
     1
102
RTVSPost2010PropOp30
 70
     0
102
RTVSPost2010Prop31
280
     0
102
RTVSPost2010PropOp31
 70
     0
102
RTVSPost2010Prop32
280
     0
102
RTVSPost2010PropOp32
 70
     0
102
RTVSPost2010Prop33
280
     0
102
RTVSPost2010PropOp33
 70
     0
102
RTVSPost2010Prop34
280
     0
102
RTVSPost2010PropOp34
 70
     0
102
RTVSPost2010Prop35
280
     0
102
RTVSPost2010PropOp35
 70
     0
102
RTVSPost2010Prop36
280
     0
102
RTVSPost2010PropOp36
 70
     0
102
RTVSPost2010Prop37
 90
       50
102
RTVSPost2010PropOp37
 70
     0
102
RTVSPost2010Prop38
140
0.0
102
RTVSPost2010PropOp38
 70
     0
102
RTVSPost2010Prop39
140
1.0
102
RTVSPost2010PropOp39
 70
     0
102
RTVSPost2010Prop40
 90
        0
102
RTVSPost2010PropOp40
 70
     0
102
RTVSPost2010Prop41ColorIndex
 90
       18
102
RTVSPost2010Prop41ColorRGB
 90
        0
102
RTVSPost2010PropOp41
 70
     0
102
RTVSPost2010Prop42
 90
       50
102
RTVSPost2010PropOp42
 70
     0
102
RTVSPost2010Prop43
 90
        3
102
RTVSPost2010PropOp43
 70
     0
102
RTVSPost2010Prop44ColorIndex
 90
        5
102
RTVSPost2010Prop44ColorRGB
 90
      255
102
RTVSPost2010PropOp44
 70
     0
102
RTVSPost2010Prop45
280
     0
102
RTVSPost2010PropOp45
 70
     0
102
RTVSPost2010Prop46
 90
       50
102
RTVSPost2010PropOp46
 70
     0
102
RTVSPost2010Prop47
 90
       50
102
RTVSPost2010PropOp47
 70
     0
102
RTVSPost2010Prop48
 90
       50
102
RTVSPost2010PropOp48
 70
     0
102
RTVSPost2010Prop49
280
     0
102
RTVSPost2010PropOp49
 70
     0
102
RTVSPost2010Prop50
 90
       50
102
RTVSPost2010PropOp50
 70
     0
102
RTVSPost2010Prop51ColorIndex
 90
      256
102
RTVSPost2010Prop51ColorRGB
 90
-16777216
102
RTVSPost2010PropOp51
 70
     0
102
RTVSPost2010Prop52
140
1.0
102
RTVSPost2010PropOp52
 70
     0
102
RTVSPost2010Prop53
 90
        2
102
RTVSPost2010PropOp53
 70
     0
102
RTVSPost2010Prop54
  1
strokes_ogs.tif
102
RTVSPost2010PropOp54
 70
     0
102
RTVSPost2010Prop55
280
     0
102
RTVSPost2010PropOp55
 70
     0
102
RTVSPost2010Prop56
140
1.0
102
RTVSPost2010PropOp56
 70
     0
102
RTVSPost2010Prop57
140
1.0
102
RTVSPost2010PropOp57
 70
     0
102
RTVSPropertyOp0
 70
     0
102
RTVSPropertyOp1
 70
     0
102
RTVSPropertyOp2
 70
     0
102
RTVSPropertyOp3
 70
     0
102
RTVSPropertyOp4
 70
     0
102
RTVSPropertyOp5
 70
     0
102
RTVSPropertyOp6
 70
     0
102
RTVSPropertyOp7
 70
     0
102
RTVSPropertyOp8
 70
     0
102
RTVSPropertyOp9
 70
     0
102
RTVSPropertyOp10
 70
     0
102
RTVSPropertyOp11
 70
     0
102
RTVSPropertyOp12
 70
     0
102
RTVSPropertyOp13
 70
     0
102
RTVSPropertyOp14
 70
     2
102
RTVSPropertyOp15
 70
     0
102
RTVSPropertyOp16
 70
     0
102
RTVSPropertyOp17
 70
     0
102
RTVSPropertyOp18
 70
     0
102
RTVSPropertyOp19
 70
     0
102
RTVSPropertyOp20
 70
     0
102
RTVSPropertyOp21
 70
     0
102
RTVSPropertyOp22
 70
     0
102
RTVSPropertyOp23
 70
     0
102
RTVSPropertyOp24
 70
     0
102
RTVSPropertyOp25
 70
     0
102
RTVSPropertyOp26
 70
     0
102
RTVSPropertyOp27
 70
     0
102
RTVSPropertyOp28
 70
     0
102
RTVSPropertyOp29
 70
     0
102
RTVSPropertyOp30
 70
     0
102
RTVSPropertyOp31
 70
     0
102
RTVSPropertyOp32
 70
     0
102
RTVSPropertyOp33
 70
     0
102
RTVSPropertyOp34
 70
     0
102
RTVSPropertyOp35
 70
     0
102
RTVSPropertyOp36
 70
     0
102
RTVSPropertyOp37
 70
     0
102
RTVSPropertyOp38
 70
     0
102
RTVSPropertyOp39
 70
     0
102
RTVSPropertyOp40
 70
     0
102
RTVSPropertyOp41
 70
     0
102
RTVSPropertyOp42
 70
     0
102
RTVSPropertyOp43
 70
     0
102
RTVSPropertyOp44
 70
     0
102
RTVSPropertyOp45
 70
     0
102
RTVSPropertyOp46
 70
     0
102
RTVSPropertyOp47
 70
     0
102
RTVSPropertyOp48
 70
     0
102
RTVSPropertyOp49
 70
     0
102
RTVSPropertyOp50
 70
     0
102
RTVSPropertyOp51
 70
     0
102
RTVSPropertyOp52
 70
     0
102
RTVSPropertyOp53
 70
     0
102
RTVSPropertyOp54
 70
     0
102
RTVSPropertyOp55
 70
     0
102
RTVSPropertyOp56
 70
     0
102
RTVSPropertyOp57
 70
     0
102
RTVSPropertyOp58
 70
     1
102
RTVSPropertyOp59
 70
     1
102
RTVSPropertyOp60
 70
     1
102
RTVSPropertyOp61
 70
     1
102
RTVSPropertyOp62
 70
     1
  0
XRECORD
  5
1313
102
{ACAD_REACTORS
330
1312
102
}
330
1312
100
AcDbXrecord
280
     1
102
RTVSPost2010Prop28
280
     0
102
RTVSPost2010PropOp28
 70
     1
102
RTVSPost2010Prop29
280
     1
102
RTVSPost2010PropOp29
 70
     1
102
RTVSPost2010Prop30
280
     1
102
RTVSPost2010PropOp30
 70
     1
102
RTVSPost2010Prop31
280
     0
102
RTVSPost2010PropOp31
 70
     1
102
RTVSPost2010Prop32
280
     0
102
RTVSPost2010PropOp32
 70
     1
102
RTVSPost2010Prop33
280
     0
102
RTVSPost2010PropOp33
 70
     1
102
RTVSPost2010Prop34
280
     0
102
RTVSPost2010PropOp34
 70
     1
102
RTVSPost2010Prop35
280
     0
102
RTVSPost2010PropOp35
 70
     1
102
RTVSPost2010Prop36
280
     0
102
RTVSPost2010PropOp36
 70
     1
102
RTVSPost2010Prop37
 90
       50
102
RTVSPost2010PropOp37
 70
     1
102
RTVSPost2010Prop38
140
0.0
102
RTVSPost2010PropOp38
 70
     1
102
RTVSPost2010Prop39
140
1.0
102
RTVSPost2010PropOp39
 70
     1
102
RTVSPost2010Prop40
 90
        0
102
RTVSPost2010PropOp40
 70
     1
102
RTVSPost2010Prop41ColorIndex
 90
       18
102
RTVSPost2010Prop41ColorRGB
 90
        0
102
RTVSPost2010PropOp41
 70
     1
102
RTVSPost2010Prop42
 90
       50
102
RTVSPost2010PropOp42
 70
     1
102
RTVSPost2010Prop43
 90
        3
102
RTVSPost2010PropOp43
 70
     1
102
RTVSPost2010Prop44ColorIndex
 90
        5
102
RTVSPost2010Prop44ColorRGB
 90
      255
102
RTVSPost2010PropOp44
 70
     1
102
RTVSPost2010Prop45
280
     0
102
RTVSPost2010PropOp45
 70
     1
102
RTVSPost2010Prop46
 90
       50
102
RTVSPost2010PropOp46
 70
     1
102
RTVSPost2010Prop47
 90
       50
102
RTVSPost2010PropOp47
 70
     1
102
RTVSPost2010Prop48
 90
       50
102
RTVSPost2010PropOp48
 70
     1
102
RTVSPost2010Prop49
280
     0
102
RTVSPost2010PropOp49
 70
     1
102
RTVSPost2010Prop50
 90
       50
102
RTVSPost2010PropOp50
 70
     1
102
RTVSPost2010Prop51ColorIndex
 90
      256
102
RTVSPost2010Prop51ColorRGB
 90
-16777216
102
RTVSPost2010PropOp51
 70
     0
102
RTVSPost2010Prop52
140
1.0
102
RTVSPost2010PropOp52
 70
     0
102
RTVSPost2010Prop53
 90
        2
102
RTVSPost2010PropOp53
 70
     1
102
RTVSPost2010Prop54
  1
strokes_ogs.tif
102
RTVSPost2010PropOp54
 70
     1
102
RTVSPost2010Prop55
280
     0
102
RTVSPost2010PropOp55
 70
     1
102
RTVSPost2010Prop56
140
1.0
102
RTVSPost2010PropOp56
 70
     1
102
RTVSPost2010Prop57
140
1.0
102
RTVSPost2010PropOp57
 70
     1
102
RTVSPropertyOp0
 70
     1
102
RTVSPropertyOp1
 70
     1
102
RTVSPropertyOp2
 70
     1
102
RTVSPropertyOp3
 70
     1
102
RTVSPropertyOp4
 70
     1
102
RTVSPropertyOp5
 70
     1
102
RTVSPropertyOp6
 70
     1
102
RTVSPropertyOp7
 70
     1
102
RTVSPropertyOp8
 70
     1
102
RTVSPropertyOp9
 70
     1
102
RTVSPropertyOp10
 70
     1
102
RTVSPropertyOp11
 70
     1
102
RTVSPropertyOp12
 70
     1
102
RTVSPropertyOp13
 70
     1
102
RTVSPropertyOp14
 70
     1
102
RTVSPropertyOp15
 70
     1
102
RTVSPropertyOp16
 70
     1
102
RTVSPropertyOp17
 70
     1
102
RTVSPropertyOp18
 70
     1
102
RTVSPropertyOp19
 70
     1
102
RTVSPropertyOp20
 70
     1
102
RTVSPropertyOp21
 70
     1
102
RTVSPropertyOp22
 70
     1
102
RTVSPropertyOp23
 70
     1
102
RTVSPropertyOp24
 70
     1
102
RTVSPropertyOp25
 70
     1
102
RTVSPropertyOp26
 70
     1
102
RTVSPropertyOp27
 70
     1
102
RTVSPropertyOp28
 70
     1
102
RTVSPropertyOp29
 70
     1
102
RTVSPropertyOp30
 70
     1
102
RTVSPropertyOp31
 70
     1
102
RTVSPropertyOp32
 70
     1
102
RTVSPropertyOp33
 70
     1
102
RTVSPropertyOp34
 70
     1
102
RTVSPropertyOp35
 70
     1
102
RTVSPropertyOp36
 70
     1
102
RTVSPropertyOp37
 70
     1
102
RTVSPropertyOp38
 70
     1
102
RTVSPropertyOp39
 70
     1
102
RTVSPropertyOp40
 70
     1
102
RTVSPropertyOp41
 70
     1
102
RTVSPropertyOp42
 70
     1
102
RTVSPropertyOp43
 70
     1
102
RTVSPropertyOp44
 70
     1
102
RTVSPropertyOp45
 70
     1
102
RTVSPropertyOp46
 70
     1
102
RTVSPropertyOp47
 70
     1
102
RTVSPropertyOp48
 70
     1
102
RTVSPropertyOp49
 70
     1
102
RTVSPropertyOp50
 70
     1
102
RTVSPropertyOp51
 70
     0
102
RTVSPropertyOp52
 70
     0
102
RTVSPropertyOp53
 70
     1
102
RTVSPropertyOp54
 70
     1
102
RTVSPropertyOp55
 70
     1
102
RTVSPropertyOp56
 70
     1
102
RTVSPropertyOp57
 70
     1
102
RTVSPropertyOp58
 70
     1
102
RTVSPropertyOp59
 70
     1
102
RTVSPropertyOp60
 70
     1
102
RTVSPropertyOp61
 70
     1
102
RTVSPropertyOp62
 70
     1
  0
XRECORD
  5
1325
102
{ACAD_REACTORS
330
1324
102
}
330
1324
100
AcDbXrecord
280
     1
102
RTVSPost2010Prop28
280
     0
102
RTVSPost2010PropOp28
 70
     0
102
RTVSPost2010Prop29
280
     1
102
RTVSPost2010PropOp29
 70
     0
102
RTVSPost2010Prop30
280
     1
102
RTVSPost2010PropOp30
 70
     0
102
RTVSPost2010Prop31
280
     0
102
RTVSPost2010PropOp31
 70
     0
102
RTVSPost2010Prop32
280
     0
102
RTVSPost2010PropOp32
 70
     0
102
RTVSPost2010Prop33
280
     0
102
RTVSPost2010PropOp33
 70
     0
102
RTVSPost2010Prop34
280
     0
102
RTVSPost2010PropOp34
 70
     0
102
RTVSPost2010Prop35
280
     0
102
RTVSPost2010PropOp35
 70
     0
102
RTVSPost2010Prop36
280
     0
102
RTVSPost2010PropOp36
 70
     0
102
RTVSPost2010Prop37
 90
       50
102
RTVSPost2010PropOp37
 70
     0
102
RTVSPost2010Prop38
140
0.0
102
RTVSPost2010PropOp38
 70
     0
102
RTVSPost2010Prop39
140
1.0
102
RTVSPost2010PropOp39
 70
     0
102
RTVSPost2010Prop40
 90
        0
102
RTVSPost2010PropOp40
 70
     0
102
RTVSPost2010Prop41ColorIndex
 90
       18
102
RTVSPost2010Prop41ColorRGB
 90
        0
102
RTVSPost2010PropOp41
 70
     0
102
RTVSPost2010Prop42
 90
       50
102
RTVSPost2010PropOp42
 70
     0
102
RTVSPost2010Prop43
 90
        3
102
RTVSPost2010PropOp43
 70
     0
102
RTVSPost2010Prop44ColorIndex
 90
        5
102
RTVSPost2010Prop44ColorRGB
 90
      255
102
RTVSPost2010PropOp44
 70
     0
102
RTVSPost2010Prop45
280
     0
102
RTVSPost2010PropOp45
 70
     0
102
RTVSPost2010Prop46
 90
       50
102
RTVSPost2010PropOp46
 70
     0
102
RTVSPost2010Prop47
 90
       50
102
RTVSPost2010PropOp47
 70
     0
102
RTVSPost2010Prop48
 90
       50
102
RTVSPost2010PropOp48
 70
     0
102
RTVSPost2010Prop49
280
     0
102
RTVSPost2010PropOp49
 70
     0
102
RTVSPost2010Prop50
 90
       50
102
RTVSPost2010PropOp50
 70
     0
102
RTVSPost2010Prop51ColorIndex
 90
      256
102
RTVSPost2010Prop51ColorRGB
 90
-16777216
102
RTVSPost2010PropOp51
 70
     0
102
RTVSPost2010Prop52
140
1.0
102
RTVSPost2010PropOp52
 70
     0
102
RTVSPost2010Prop53
 90
        2
102
RTVSPost2010PropOp53
 70
     0
102
RTVSPost2010Prop54
  1
strokes_ogs.tif
102
RTVSPost2010PropOp54
 70
     0
102
RTVSPost2010Prop55
280
     0
102
RTVSPost2010PropOp55
 70
     0
102
RTVSPost2010Prop56
140
1.0
102
RTVSPost2010PropOp56
 70
     0
102
RTVSPost2010Prop57
140
1.0
102
RTVSPost2010PropOp57
 70
     0
102
RTVSPropertyOp0
 70
     0
102
RTVSPropertyOp1
 70
     0
102
RTVSPropertyOp2
 70
     0
102
RTVSPropertyOp3
 70
     0
102
RTVSPropertyOp4
 70
     0
102
RTVSPropertyOp5
 70
     0
102
RTVSPropertyOp6
 70
     0
102
RTVSPropertyOp7
 70
     0
102
RTVSPropertyOp8
 70
     0
102
RTVSPropertyOp9
 70
     0
102
RTVSPropertyOp10
 70
     0
102
RTVSPropertyOp11
 70
     0
102
RTVSPropertyOp12
 70
     0
102
RTVSPropertyOp13
 70
     0
102
RTVSPropertyOp14
 70
     2
102
RTVSPropertyOp15
 70
     0
102
RTVSPropertyOp16
 70
     0
102
RTVSPropertyOp17
 70
     0
102
RTVSPropertyOp18
 70
     0
102
RTVSPropertyOp19
 70
     0
102
RTVSPropertyOp20
 70
     0
102
RTVSPropertyOp21
 70
     0
102
RTVSPropertyOp22
 70
     0
102
RTVSPropertyOp23
 70
     0
102
RTVSPropertyOp24
 70
     0
102
RTVSPropertyOp25
 70
     0
102
RTVSPropertyOp26
 70
     0
102
RTVSPropertyOp27
 70
     0
102
RTVSPropertyOp28
 70
     0
102
RTVSPropertyOp29
 70
     0
102
RTVSPropertyOp30
 70
     0
102
RTVSPropertyOp31
 70
     0
102
RTVSPropertyOp32
 70
     0
102
RTVSPropertyOp33
 70
     0
102
RTVSPropertyOp34
 70
     0
102
RTVSPropertyOp35
 70
     0
102
RTVSPropertyOp36
 70
     0
102
RTVSPropertyOp37
 70
     0
102
RTVSPropertyOp38
 70
     0
102
RTVSPropertyOp39
 70
     0
102
RTVSPropertyOp40
 70
     0
102
RTVSPropertyOp41
 70
     0
102
RTVSPropertyOp42
 70
     0
102
RTVSPropertyOp43
 70
     0
102
RTVSPropertyOp44
 70
     0
102
RTVSPropertyOp45
 70
     0
102
RTVSPropertyOp46
 70
     0
102
RTVSPropertyOp47
 70
     0
102
RTVSPropertyOp48
 70
     0
102
RTVSPropertyOp49
 70
     0
102
RTVSPropertyOp50
 70
     0
102
RTVSPropertyOp51
 70
     0
102
RTVSPropertyOp52
 70
     0
102
RTVSPropertyOp53
 70
     0
102
RTVSPropertyOp54
 70
     0
102
RTVSPropertyOp55
 70
     0
102
RTVSPropertyOp56
 70
     0
102
RTVSPropertyOp57
 70
     0
102
RTVSPropertyOp58
 70
     1
102
RTVSPropertyOp59
 70
     1
102
RTVSPropertyOp60
 70
     1
102
RTVSPropertyOp61
 70
     1
102
RTVSPropertyOp62
 70
     1
  0
XRECORD
  5
130B
102
{ACAD_REACTORS
330
130A
102
}
330
130A
100
AcDbXrecord
280
     1
102
RTVSPost2010Prop28
280
     0
102
RTVSPost2010PropOp28
 70
     1
102
RTVSPost2010Prop29
280
     1
102
RTVSPost2010PropOp29
 70
     1
102
RTVSPost2010Prop30
280
     1
102
RTVSPost2010PropOp30
 70
     1
102
RTVSPost2010Prop31
280
     0
102
RTVSPost2010PropOp31
 70
     1
102
RTVSPost2010Prop32
280
     0
102
RTVSPost2010PropOp32
 70
     1
102
RTVSPost2010Prop33
280
     0
102
RTVSPost2010PropOp33
 70
     1
102
RTVSPost2010Prop34
280
     0
102
RTVSPost2010PropOp34
 70
     1
102
RTVSPost2010Prop35
280
     0
102
RTVSPost2010PropOp35
 70
     1
102
RTVSPost2010Prop36
280
     0
102
RTVSPost2010PropOp36
 70
     1
102
RTVSPost2010Prop37
 90
       50
102
RTVSPost2010PropOp37
 70
     1
102
RTVSPost2010Prop38
140
0.0
102
RTVSPost2010PropOp38
 70
     1
102
RTVSPost2010Prop39
140
1.0
102
RTVSPost2010PropOp39
 70
     1
102
RTVSPost2010Prop40
 90
        0
102
RTVSPost2010PropOp40
 70
     1
102
RTVSPost2010Prop41ColorIndex
 90
       18
102
RTVSPost2010Prop41ColorRGB
 90
        0
102
RTVSPost2010PropOp41
 70
     1
102
RTVSPost2010Prop42
 90
       50
102
RTVSPost2010PropOp42
 70
     1
102
RTVSPost2010Prop43
 90
        3
102
RTVSPost2010PropOp43
 70
     1
102
RTVSPost2010Prop44ColorIndex
 90
        5
102
RTVSPost2010Prop44ColorRGB
 90
      255
102
RTVSPost2010PropOp44
 70
     1
102
RTVSPost2010Prop45
280
     0
102
RTVSPost2010PropOp45
 70
     1
102
RTVSPost2010Prop46
 90
       50
102
RTVSPost2010PropOp46
 70
     1
102
RTVSPost2010Prop47
 90
       50
102
RTVSPost2010PropOp47
 70
     1
102
RTVSPost2010Prop48
 90
       50
102
RTVSPost2010PropOp48
 70
     1
102
RTVSPost2010Prop49
280
     0
102
RTVSPost2010PropOp49
 70
     1
102
RTVSPost2010Prop50
 90
       50
102
RTVSPost2010PropOp50
 70
     1
102
RTVSPost2010Prop51ColorIndex
 90
      256
102
RTVSPost2010Prop51ColorRGB
 90
-16777216
102
RTVSPost2010PropOp51
 70
     0
102
RTVSPost2010Prop52
140
1.0
102
RTVSPost2010PropOp52
 70
     0
102
RTVSPost2010Prop53
 90
        2
102
RTVSPost2010PropOp53
 70
     1
102
RTVSPost2010Prop54
  1
strokes_ogs.tif
102
RTVSPost2010PropOp54
 70
     1
102
RTVSPost2010Prop55
280
     0
102
RTVSPost2010PropOp55
 70
     1
102
RTVSPost2010Prop56
140
1.0
102
RTVSPost2010PropOp56
 70
     1
102
RTVSPost2010Prop57
140
1.0
102
RTVSPost2010PropOp57
 70
     1
102
RTVSPropertyOp0
 70
     1
102
RTVSPropertyOp1
 70
     1
102
RTVSPropertyOp2
 70
     1
102
RTVSPropertyOp3
 70
     1
102
RTVSPropertyOp4
 70
     1
102
RTVSPropertyOp5
 70
     1
102
RTVSPropertyOp6
 70
     1
102
RTVSPropertyOp7
 70
     1
102
RTVSPropertyOp8
 70
     1
102
RTVSPropertyOp9
 70
     1
102
RTVSPropertyOp10
 70
     1
102
RTVSPropertyOp11
 70
     1
102
RTVSPropertyOp12
 70
     1
102
RTVSPropertyOp13
 70
     1
102
RTVSPropertyOp14
 70
     1
102
RTVSPropertyOp15
 70
     1
102
RTVSPropertyOp16
 70
     1
102
RTVSPropertyOp17
 70
     1
102
RTVSPropertyOp18
 70
     1
102
RTVSPropertyOp19
 70
     1
102
RTVSPropertyOp20
 70
     1
102
RTVSPropertyOp21
 70
     1
102
RTVSPropertyOp22
 70
     1
102
RTVSPropertyOp23
 70
     1
102
RTVSPropertyOp24
 70
     1
102
RTVSPropertyOp25
 70
     1
102
RTVSPropertyOp26
 70
     1
102
RTVSPropertyOp27
 70
     1
102
RTVSPropertyOp28
 70
     1
102
RTVSPropertyOp29
 70
     1
102
RTVSPropertyOp30
 70
     1
102
RTVSPropertyOp31
 70
     1
102
RTVSPropertyOp32
 70
     1
102
RTVSPropertyOp33
 70
     1
102
RTVSPropertyOp34
 70
     1
102
RTVSPropertyOp35
 70
     1
102
RTVSPropertyOp36
 70
     1
102
RTVSPropertyOp37
 70
     1
102
RTVSPropertyOp38
 70
     1
102
RTVSPropertyOp39
 70
     1
102
RTVSPropertyOp40
 70
     1
102
RTVSPropertyOp41
 70
     1
102
RTVSPropertyOp42
 70
     1
102
RTVSPropertyOp43
 70
     1
102
RTVSPropertyOp44
 70
     1
102
RTVSPropertyOp45
 70
     1
102
RTVSPropertyOp46
 70
     1
102
RTVSPropertyOp47
 70
     1
102
RTVSPropertyOp48
 70
     1
102
RTVSPropertyOp49
 70
     1
102
RTVSPropertyOp50
 70
     1
102
RTVSPropertyOp51
 70
     0
102
RTVSPropertyOp52
 70
     0
102
RTVSPropertyOp53
 70
     1
102
RTVSPropertyOp54
 70
     1
102
RTVSPropertyOp55
 70
     1
102
RTVSPropertyOp56
 70
     1
102
RTVSPropertyOp57
 70
     1
102
RTVSPropertyOp58
 70
     1
102
RTVSPropertyOp59
 70
     1
102
RTVSPropertyOp60
 70
     1
102
RTVSPropertyOp61
 70
     1
102
RTVSPropertyOp62
 70
     1
  0
XRECORD
  5
1321
102
{ACAD_REACTORS
330
1320
102
}
330
1320
100
AcDbXrecord
280
     1
102
RTVSPost2010Prop28
280
     0
102
RTVSPost2010PropOp28
 70
     1
102
RTVSPost2010Prop29
280
     1
102
RTVSPost2010PropOp29
 70
     1
102
RTVSPost2010Prop30
280
     1
102
RTVSPost2010PropOp30
 70
     1
102
RTVSPost2010Prop31
280
     0
102
RTVSPost2010PropOp31
 70
     1
102
RTVSPost2010Prop32
280
     0
102
RTVSPost2010PropOp32
 70
     1
102
RTVSPost2010Prop33
280
     0
102
RTVSPost2010PropOp33
 70
     1
102
RTVSPost2010Prop34
280
     0
102
RTVSPost2010PropOp34
 70
     1
102
RTVSPost2010Prop35
280
     0
102
RTVSPost2010PropOp35
 70
     1
102
RTVSPost2010Prop36
280
     0
102
RTVSPost2010PropOp36
 70
     1
102
RTVSPost2010Prop37
 90
       50
102
RTVSPost2010PropOp37
 70
     1
102
RTVSPost2010Prop38
140
0.0
102
RTVSPost2010PropOp38
 70
     1
102
RTVSPost2010Prop39
140
1.0
102
RTVSPost2010PropOp39
 70
     1
102
RTVSPost2010Prop40
 90
        0
102
RTVSPost2010PropOp40
 70
     1
102
RTVSPost2010Prop41ColorIndex
 90
       18
102
RTVSPost2010Prop41ColorRGB
 90
        0
102
RTVSPost2010PropOp41
 70
     1
102
RTVSPost2010Prop42
 90
       50
102
RTVSPost2010PropOp42
 70
     1
102
RTVSPost2010Prop43
 90
        3
102
RTVSPost2010PropOp43
 70
     1
102
RTVSPost2010Prop44ColorIndex
 90
        5
102
RTVSPost2010Prop44ColorRGB
 90
      255
102
RTVSPost2010PropOp44
 70
     1
102
RTVSPost2010Prop45
280
     0
102
RTVSPost2010PropOp45
 70
     1
102
RTVSPost2010Prop46
 90
       50
102
RTVSPost2010PropOp46
 70
     1
102
RTVSPost2010Prop47
 90
       50
102
RTVSPost2010PropOp47
 70
     1
102
RTVSPost2010Prop48
 90
       50
102
RTVSPost2010PropOp48
 70
     1
102
RTVSPost2010Prop49
280
     0
102
RTVSPost2010PropOp49
 70
     1
102
RTVSPost2010Prop50
 90
       50
102
RTVSPost2010PropOp50
 70
     1
102
RTVSPost2010Prop51ColorIndex
 90
      256
102
RTVSPost2010Prop51ColorRGB
 90
-16777216
102
RTVSPost2010PropOp51
 70
     0
102
RTVSPost2010Prop52
140
1.0
102
RTVSPost2010PropOp52
 70
     0
102
RTVSPost2010Prop53
 90
        2
102
RTVSPost2010PropOp53
 70
     1
102
RTVSPost2010Prop54
  1
strokes_ogs.tif
102
RTVSPost2010PropOp54
 70
     1
102
RTVSPost2010Prop55
280
     0
102
RTVSPost2010PropOp55
 70
     1
102
RTVSPost2010Prop56
140
1.0
102
RTVSPost2010PropOp56
 70
     1
102
RTVSPost2010Prop57
140
1.0
102
RTVSPost2010PropOp57
 70
     1
102
RTVSPropertyOp0
 70
     1
102
RTVSPropertyOp1
 70
     1
102
RTVSPropertyOp2
 70
     1
102
RTVSPropertyOp3
 70
     1
102
RTVSPropertyOp4
 70
     1
102
RTVSPropertyOp5
 70
     1
102
RTVSPropertyOp6
 70
     1
102
RTVSPropertyOp7
 70
     1
102
RTVSPropertyOp8
 70
     1
102
RTVSPropertyOp9
 70
     1
102
RTVSPropertyOp10
 70
     1
102
RTVSPropertyOp11
 70
     1
102
RTVSPropertyOp12
 70
     1
102
RTVSPropertyOp13
 70
     1
102
RTVSPropertyOp14
 70
     1
102
RTVSPropertyOp15
 70
     1
102
RTVSPropertyOp16
 70
     1
102
RTVSPropertyOp17
 70
     1
102
RTVSPropertyOp18
 70
     1
102
RTVSPropertyOp19
 70
     1
102
RTVSPropertyOp20
 70
     1
102
RTVSPropertyOp21
 70
     1
102
RTVSPropertyOp22
 70
     1
102
RTVSPropertyOp23
 70
     1
102
RTVSPropertyOp24
 70
     1
102
RTVSPropertyOp25
 70
     1
102
RTVSPropertyOp26
 70
     1
102
RTVSPropertyOp27
 70
     1
102
RTVSPropertyOp28
 70
     1
102
RTVSPropertyOp29
 70
     1
102
RTVSPropertyOp30
 70
     1
102
RTVSPropertyOp31
 70
     1
102
RTVSPropertyOp32
 70
     1
102
RTVSPropertyOp33
 70
     1
102
RTVSPropertyOp34
 70
     1
102
RTVSPropertyOp35
 70
     1
102
RTVSPropertyOp36
 70
     1
102
RTVSPropertyOp37
 70
     1
102
RTVSPropertyOp38
 70
     1
102
RTVSPropertyOp39
 70
     1
102
RTVSPropertyOp40
 70
     1
102
RTVSPropertyOp41
 70
     1
102
RTVSPropertyOp42
 70
     1
102
RTVSPropertyOp43
 70
     1
102
RTVSPropertyOp44
 70
     1
102
RTVSPropertyOp45
 70
     1
102
RTVSPropertyOp46
 70
     1
102
RTVSPropertyOp47
 70
     1
102
RTVSPropertyOp48
 70
     1
102
RTVSPropertyOp49
 70
     1
102
RTVSPropertyOp50
 70
     1
102
RTVSPropertyOp51
 70
     0
102
RTVSPropertyOp52
 70
     0
102
RTVSPropertyOp53
 70
     1
102
RTVSPropertyOp54
 70
     1
102
RTVSPropertyOp55
 70
     1
102
RTVSPropertyOp56
 70
     1
102
RTVSPropertyOp57
 70
     1
102
RTVSPropertyOp58
 70
     1
102
RTVSPropertyOp59
 70
     1
102
RTVSPropertyOp60
 70
     1
102
RTVSPropertyOp61
 70
     1
102
RTVSPropertyOp62
 70
     1
  0
XRECORD
  5
131F
102
{ACAD_REACTORS
330
131E
102
}
330
131E
100
AcDbXrecord
280
     1
102
RTVSPost2010Prop28
280
     0
102
RTVSPost2010PropOp28
 70
     1
102
RTVSPost2010Prop29
280
     1
102
RTVSPost2010PropOp29
 70
     1
102
RTVSPost2010Prop30
280
     1
102
RTVSPost2010PropOp30
 70
     1
102
RTVSPost2010Prop31
280
     0
102
RTVSPost2010PropOp31
 70
     1
102
RTVSPost2010Prop32
280
     0
102
RTVSPost2010PropOp32
 70
     1
102
RTVSPost2010Prop33
280
     0
102
RTVSPost2010PropOp33
 70
     1
102
RTVSPost2010Prop34
280
     0
102
RTVSPost2010PropOp34
 70
     1
102
RTVSPost2010Prop35
280
     0
102
RTVSPost2010PropOp35
 70
     1
102
RTVSPost2010Prop36
280
     0
102
RTVSPost2010PropOp36
 70
     1
102
RTVSPost2010Prop37
 90
       50
102
RTVSPost2010PropOp37
 70
     1
102
RTVSPost2010Prop38
140
0.0
102
RTVSPost2010PropOp38
 70
     1
102
RTVSPost2010Prop39
140
1.0
102
RTVSPost2010PropOp39
 70
     1
102
RTVSPost2010Prop40
 90
        0
102
RTVSPost2010PropOp40
 70
     1
102
RTVSPost2010Prop41ColorIndex
 90
       18
102
RTVSPost2010Prop41ColorRGB
 90
        0
102
RTVSPost2010PropOp41
 70
     1
102
RTVSPost2010Prop42
 90
       50
102
RTVSPost2010PropOp42
 70
     1
102
RTVSPost2010Prop43
 90
        3
102
RTVSPost2010PropOp43
 70
     1
102
RTVSPost2010Prop44ColorIndex
 90
        5
102
RTVSPost2010Prop44ColorRGB
 90
      255
102
RTVSPost2010PropOp44
 70
     1
102
RTVSPost2010Prop45
280
     0
102
RTVSPost2010PropOp45
 70
     1
102
RTVSPost2010Prop46
 90
       50
102
RTVSPost2010PropOp46
 70
     1
102
RTVSPost2010Prop47
 90
       50
102
RTVSPost2010PropOp47
 70
     1
102
RTVSPost2010Prop48
 90
       50
102
RTVSPost2010PropOp48
 70
     1
102
RTVSPost2010Prop49
280
     0
102
RTVSPost2010PropOp49
 70
     1
102
RTVSPost2010Prop50
 90
       50
102
RTVSPost2010PropOp50
 70
     1
102
RTVSPost2010Prop51ColorIndex
 90
      256
102
RTVSPost2010Prop51ColorRGB
 90
-16777216
102
RTVSPost2010PropOp51
 70
     0
102
RTVSPost2010Prop52
140
1.0
102
RTVSPost2010PropOp52
 70
     0
102
RTVSPost2010Prop53
 90
        2
102
RTVSPost2010PropOp53
 70
     1
102
RTVSPost2010Prop54
  1
strokes_ogs.tif
102
RTVSPost2010PropOp54
 70
     1
102
RTVSPost2010Prop55
280
     0
102
RTVSPost2010PropOp55
 70
     1
102
RTVSPost2010Prop56
140
1.0
102
RTVSPost2010PropOp56
 70
     1
102
RTVSPost2010Prop57
140
1.0
102
RTVSPost2010PropOp57
 70
     1
102
RTVSPropertyOp0
 70
     1
102
RTVSPropertyOp1
 70
     1
102
RTVSPropertyOp2
 70
     1
102
RTVSPropertyOp3
 70
     1
102
RTVSPropertyOp4
 70
     1
102
RTVSPropertyOp5
 70
     1
102
RTVSPropertyOp6
 70
     1
102
RTVSPropertyOp7
 70
     1
102
RTVSPropertyOp8
 70
     1
102
RTVSPropertyOp9
 70
     1
102
RTVSPropertyOp10
 70
     1
102
RTVSPropertyOp11
 70
     1
102
RTVSPropertyOp12
 70
     1
102
RTVSPropertyOp13
 70
     1
102
RTVSPropertyOp14
 70
     1
102
RTVSPropertyOp15
 70
     1
102
RTVSPropertyOp16
 70
     1
102
RTVSPropertyOp17
 70
     1
102
RTVSPropertyOp18
 70
     1
102
RTVSPropertyOp19
 70
     1
102
RTVSPropertyOp20
 70
     1
102
RTVSPropertyOp21
 70
     1
102
RTVSPropertyOp22
 70
     1
102
RTVSPropertyOp23
 70
     1
102
RTVSPropertyOp24
 70
     1
102
RTVSPropertyOp25
 70
     1
102
RTVSPropertyOp26
 70
     1
102
RTVSPropertyOp27
 70
     1
102
RTVSPropertyOp28
 70
     1
102
RTVSPropertyOp29
 70
     1
102
RTVSPropertyOp30
 70
     1
102
RTVSPropertyOp31
 70
     1
102
RTVSPropertyOp32
 70
     1
102
RTVSPropertyOp33
 70
     1
102
RTVSPropertyOp34
 70
     1
102
RTVSPropertyOp35
 70
     1
102
RTVSPropertyOp36
 70
     1
102
RTVSPropertyOp37
 70
     1
102
RTVSPropertyOp38
 70
     1
102
RTVSPropertyOp39
 70
     1
102
RTVSPropertyOp40
 70
     1
102
RTVSPropertyOp41
 70
     1
102
RTVSPropertyOp42
 70
     1
102
RTVSPropertyOp43
 70
     1
102
RTVSPropertyOp44
 70
     1
102
RTVSPropertyOp45
 70
     1
102
RTVSPropertyOp46
 70
     1
102
RTVSPropertyOp47
 70
     1
102
RTVSPropertyOp48
 70
     1
102
RTVSPropertyOp49
 70
     1
102
RTVSPropertyOp50
 70
     1
102
RTVSPropertyOp51
 70
     0
102
RTVSPropertyOp52
 70
     0
102
RTVSPropertyOp53
 70
     1
102
RTVSPropertyOp54
 70
     1
102
RTVSPropertyOp55
 70
     1
102
RTVSPropertyOp56
 70
     1
102
RTVSPropertyOp57
 70
     1
102
RTVSPropertyOp58
 70
     1
102
RTVSPropertyOp59
 70
     1
102
RTVSPropertyOp60
 70
     1
102
RTVSPropertyOp61
 70
     1
102
RTVSPropertyOp62
 70
     1
  0
XRECORD
  5
1319
102
{ACAD_REACTORS
330
1318
102
}
330
1318
100
AcDbXrecord
280
     1
102
RTVSPost2010Prop28
280
     0
102
RTVSPost2010PropOp28
 70
     1
102
RTVSPost2010Prop29
280
     1
102
RTVSPost2010PropOp29
 70
     1
102
RTVSPost2010Prop30
280
     1
102
RTVSPost2010PropOp30
 70
     1
102
RTVSPost2010Prop31
280
     0
102
RTVSPost2010PropOp31
 70
     1
102
RTVSPost2010Prop32
280
     0
102
RTVSPost2010PropOp32
 70
     1
102
RTVSPost2010Prop33
280
     0
102
RTVSPost2010PropOp33
 70
     1
102
RTVSPost2010Prop34
280
     0
102
RTVSPost2010PropOp34
 70
     1
102
RTVSPost2010Prop35
280
     0
102
RTVSPost2010PropOp35
 70
     1
102
RTVSPost2010Prop36
280
     0
102
RTVSPost2010PropOp36
 70
     1
102
RTVSPost2010Prop37
 90
       50
102
RTVSPost2010PropOp37
 70
     1
102
RTVSPost2010Prop38
140
0.0
102
RTVSPost2010PropOp38
 70
     1
102
RTVSPost2010Prop39
140
1.0
102
RTVSPost2010PropOp39
 70
     1
102
RTVSPost2010Prop40
 90
        0
102
RTVSPost2010PropOp40
 70
     1
102
RTVSPost2010Prop41ColorIndex
 90
       18
102
RTVSPost2010Prop41ColorRGB
 90
        0
102
RTVSPost2010PropOp41
 70
     1
102
RTVSPost2010Prop42
 90
       50
102
RTVSPost2010PropOp42
 70
     1
102
RTVSPost2010Prop43
 90
        3
102
RTVSPost2010PropOp43
 70
     1
102
RTVSPost2010Prop44ColorIndex
 90
        5
102
RTVSPost2010Prop44ColorRGB
 90
      255
102
RTVSPost2010PropOp44
 70
     1
102
RTVSPost2010Prop45
280
     0
102
RTVSPost2010PropOp45
 70
     1
102
RTVSPost2010Prop46
 90
       50
102
RTVSPost2010PropOp46
 70
     1
102
RTVSPost2010Prop47
 90
       50
102
RTVSPost2010PropOp47
 70
     1
102
RTVSPost2010Prop48
 90
       50
102
RTVSPost2010PropOp48
 70
     1
102
RTVSPost2010Prop49
280
     0
102
RTVSPost2010PropOp49
 70
     1
102
RTVSPost2010Prop50
 90
       50
102
RTVSPost2010PropOp50
 70
     1
102
RTVSPost2010Prop51ColorIndex
 90
      256
102
RTVSPost2010Prop51ColorRGB
 90
-16777216
102
RTVSPost2010PropOp51
 70
     0
102
RTVSPost2010Prop52
140
1.0
102
RTVSPost2010PropOp52
 70
     0
102
RTVSPost2010Prop53
 90
        2
102
RTVSPost2010PropOp53
 70
     1
102
RTVSPost2010Prop54
  1
strokes_ogs.tif
102
RTVSPost2010PropOp54
 70
     1
102
RTVSPost2010Prop55
280
     0
102
RTVSPost2010PropOp55
 70
     1
102
RTVSPost2010Prop56
140
1.0
102
RTVSPost2010PropOp56
 70
     1
102
RTVSPost2010Prop57
140
1.0
102
RTVSPost2010PropOp57
 70
     1
102
RTVSPropertyOp0
 70
     1
102
RTVSPropertyOp1
 70
     1
102
RTVSPropertyOp2
 70
     1
102
RTVSPropertyOp3
 70
     1
102
RTVSPropertyOp4
 70
     1
102
RTVSPropertyOp5
 70
     1
102
RTVSPropertyOp6
 70
     1
102
RTVSPropertyOp7
 70
     1
102
RTVSPropertyOp8
 70
     1
102
RTVSPropertyOp9
 70
     1
102
RTVSPropertyOp10
 70
     1
102
RTVSPropertyOp11
 70
     1
102
RTVSPropertyOp12
 70
     1
102
RTVSPropertyOp13
 70
     1
102
RTVSPropertyOp14
 70
     1
102
RTVSPropertyOp15
 70
     1
102
RTVSPropertyOp16
 70
     1
102
RTVSPropertyOp17
 70
     1
102
RTVSPropertyOp18
 70
     1
102
RTVSPropertyOp19
 70
     1
102
RTVSPropertyOp20
 70
     1
102
RTVSPropertyOp21
 70
     1
102
RTVSPropertyOp22
 70
     1
102
RTVSPropertyOp23
 70
     1
102
RTVSPropertyOp24
 70
     1
102
RTVSPropertyOp25
 70
     1
102
RTVSPropertyOp26
 70
     1
102
RTVSPropertyOp27
 70
     1
102
RTVSPropertyOp28
 70
     1
102
RTVSPropertyOp29
 70
     1
102
RTVSPropertyOp30
 70
     1
102
RTVSPropertyOp31
 70
     1
102
RTVSPropertyOp32
 70
     1
102
RTVSPropertyOp33
 70
     1
102
RTVSPropertyOp34
 70
     1
102
RTVSPropertyOp35
 70
     1
102
RTVSPropertyOp36
 70
     1
102
RTVSPropertyOp37
 70
     1
102
RTVSPropertyOp38
 70
     1
102
RTVSPropertyOp39
 70
     1
102
RTVSPropertyOp40
 70
     1
102
RTVSPropertyOp41
 70
     1
102
RTVSPropertyOp42
 70
     1
102
RTVSPropertyOp43
 70
     1
102
RTVSPropertyOp44
 70
     1
102
RTVSPropertyOp45
 70
     1
102
RTVSPropertyOp46
 70
     1
102
RTVSPropertyOp47
 70
     1
102
RTVSPropertyOp48
 70
     1
102
RTVSPropertyOp49
 70
     1
102
RTVSPropertyOp50
 70
     1
102
RTVSPropertyOp51
 70
     0
102
RTVSPropertyOp52
 70
     0
102
RTVSPropertyOp53
 70
     1
102
RTVSPropertyOp54
 70
     1
102
RTVSPropertyOp55
 70
     1
102
RTVSPropertyOp56
 70
     1
102
RTVSPropertyOp57
 70
     1
102
RTVSPropertyOp58
 70
     1
102
RTVSPropertyOp59
 70
     1
102
RTVSPropertyOp60
 70
     1
102
RTVSPropertyOp61
 70
     1
102
RTVSPropertyOp62
 70
     1
  0
XRECORD
  5
131B
102
{ACAD_REACTORS
330
131A
102
}
330
131A
100
AcDbXrecord
280
     1
102
RTVSPost2010Prop28
280
     0
102
RTVSPost2010PropOp28
 70
     1
102
RTVSPost2010Prop29
280
     1
102
RTVSPost2010PropOp29
 70
     1
102
RTVSPost2010Prop30
280
     1
102
RTVSPost2010PropOp30
 70
     1
102
RTVSPost2010Prop31
280
     0
102
RTVSPost2010PropOp31
 70
     1
102
RTVSPost2010Prop32
280
     0
102
RTVSPost2010PropOp32
 70
     1
102
RTVSPost2010Prop33
280
     0
102
RTVSPost2010PropOp33
 70
     1
102
RTVSPost2010Prop34
280
     0
102
RTVSPost2010PropOp34
 70
     1
102
RTVSPost2010Prop35
280
     0
102
RTVSPost2010PropOp35
 70
     1
102
RTVSPost2010Prop36
280
     0
102
RTVSPost2010PropOp36
 70
     1
102
RTVSPost2010Prop37
 90
       50
102
RTVSPost2010PropOp37
 70
     1
102
RTVSPost2010Prop38
140
0.0
102
RTVSPost2010PropOp38
 70
     1
102
RTVSPost2010Prop39
140
1.0
102
RTVSPost2010PropOp39
 70
     1
102
RTVSPost2010Prop40
 90
        0
102
RTVSPost2010PropOp40
 70
     1
102
RTVSPost2010Prop41ColorIndex
 90
       18
102
RTVSPost2010Prop41ColorRGB
 90
        0
102
RTVSPost2010PropOp41
 70
     1
102
RTVSPost2010Prop42
 90
       50
102
RTVSPost2010PropOp42
 70
     1
102
RTVSPost2010Prop43
 90
        3
102
RTVSPost2010PropOp43
 70
     1
102
RTVSPost2010Prop44ColorIndex
 90
        5
102
RTVSPost2010Prop44ColorRGB
 90
      255
102
RTVSPost2010PropOp44
 70
     1
102
RTVSPost2010Prop45
280
     0
102
RTVSPost2010PropOp45
 70
     1
102
RTVSPost2010Prop46
 90
       50
102
RTVSPost2010PropOp46
 70
     1
102
RTVSPost2010Prop47
 90
       50
102
RTVSPost2010PropOp47
 70
     1
102
RTVSPost2010Prop48
 90
       50
102
RTVSPost2010PropOp48
 70
     1
102
RTVSPost2010Prop49
280
     0
102
RTVSPost2010PropOp49
 70
     1
102
RTVSPost2010Prop50
 90
       50
102
RTVSPost2010PropOp50
 70
     1
102
RTVSPost2010Prop51ColorIndex
 90
      256
102
RTVSPost2010Prop51ColorRGB
 90
-16777216
102
RTVSPost2010PropOp51
 70
     0
102
RTVSPost2010Prop52
140
1.0
102
RTVSPost2010PropOp52
 70
     0
102
RTVSPost2010Prop53
 90
        2
102
RTVSPost2010PropOp53
 70
     1
102
RTVSPost2010Prop54
  1
strokes_ogs.tif
102
RTVSPost2010PropOp54
 70
     1
102
RTVSPost2010Prop55
280
     0
102
RTVSPost2010PropOp55
 70
     1
102
RTVSPost2010Prop56
140
1.0
102
RTVSPost2010PropOp56
 70
     1
102
RTVSPost2010Prop57
140
1.0
102
RTVSPost2010PropOp57
 70
     1
102
RTVSPropertyOp0
 70
     1
102
RTVSPropertyOp1
 70
     1
102
RTVSPropertyOp2
 70
     1
102
RTVSPropertyOp3
 70
     1
102
RTVSPropertyOp4
 70
     1
102
RTVSPropertyOp5
 70
     1
102
RTVSPropertyOp6
 70
     1
102
RTVSPropertyOp7
 70
     1
102
RTVSPropertyOp8
 70
     1
102
RTVSPropertyOp9
 70
     1
102
RTVSPropertyOp10
 70
     1
102
RTVSPropertyOp11
 70
     1
102
RTVSPropertyOp12
 70
     1
102
RTVSPropertyOp13
 70
     1
102
RTVSPropertyOp14
 70
     1
102
RTVSPropertyOp15
 70
     1
102
RTVSPropertyOp16
 70
     1
102
RTVSPropertyOp17
 70
     1
102
RTVSPropertyOp18
 70
     1
102
RTVSPropertyOp19
 70
     1
102
RTVSPropertyOp20
 70
     1
102
RTVSPropertyOp21
 70
     1
102
RTVSPropertyOp22
 70
     1
102
RTVSPropertyOp23
 70
     1
102
RTVSPropertyOp24
 70
     1
102
RTVSPropertyOp25
 70
     1
102
RTVSPropertyOp26
 70
     1
102
RTVSPropertyOp27
 70
     1
102
RTVSPropertyOp28
 70
     1
102
RTVSPropertyOp29
 70
     1
102
RTVSPropertyOp30
 70
     1
102
RTVSPropertyOp31
 70
     1
102
RTVSPropertyOp32
 70
     1
102
RTVSPropertyOp33
 70
     1
102
RTVSPropertyOp34
 70
     1
102
RTVSPropertyOp35
 70
     1
102
RTVSPropertyOp36
 70
     1
102
RTVSPropertyOp37
 70
     1
102
RTVSPropertyOp38
 70
     1
102
RTVSPropertyOp39
 70
     1
102
RTVSPropertyOp40
 70
     1
102
RTVSPropertyOp41
 70
     1
102
RTVSPropertyOp42
 70
     1
102
RTVSPropertyOp43
 70
     1
102
RTVSPropertyOp44
 70
     1
102
RTVSPropertyOp45
 70
     1
102
RTVSPropertyOp46
 70
     1
102
RTVSPropertyOp47
 70
     1
102
RTVSPropertyOp48
 70
     1
102
RTVSPropertyOp49
 70
     1
102
RTVSPropertyOp50
 70
     1
102
RTVSPropertyOp51
 70
     0
102
RTVSPropertyOp52
 70
     0
102
RTVSPropertyOp53
 70
     1
102
RTVSPropertyOp54
 70
     1
102
RTVSPropertyOp55
 70
     1
102
RTVSPropertyOp56
 70
     1
102
RTVSPropertyOp57
 70
     1
102
RTVSPropertyOp58
 70
     1
102
RTVSPropertyOp59
 70
     1
102
RTVSPropertyOp60
 70
     1
102
RTVSPropertyOp61
 70
     1
102
RTVSPropertyOp62
 70
     1
  0
XRECORD
  5
1311
102
{ACAD_REACTORS
330
1310
102
}
330
1310
100
AcDbXrecord
280
     1
102
RTVSPost2010Prop28
280
     0
102
RTVSPost2010PropOp28
 70
     1
102
RTVSPost2010Prop29
280
     1
102
RTVSPost2010PropOp29
 70
     1
102
RTVSPost2010Prop30
280
     1
102
RTVSPost2010PropOp30
 70
     1
102
RTVSPost2010Prop31
280
     0
102
RTVSPost2010PropOp31
 70
     1
102
RTVSPost2010Prop32
280
     0
102
RTVSPost2010PropOp32
 70
     1
102
RTVSPost2010Prop33
280
     0
102
RTVSPost2010PropOp33
 70
     1
102
RTVSPost2010Prop34
280
     0
102
RTVSPost2010PropOp34
 70
     1
102
RTVSPost2010Prop35
280
     0
102
RTVSPost2010PropOp35
 70
     1
102
RTVSPost2010Prop36
280
     0
102
RTVSPost2010PropOp36
 70
     1
102
RTVSPost2010Prop37
 90
       50
102
RTVSPost2010PropOp37
 70
     1
102
RTVSPost2010Prop38
140
0.0
102
RTVSPost2010PropOp38
 70
     1
102
RTVSPost2010Prop39
140
1.0
102
RTVSPost2010PropOp39
 70
     1
102
RTVSPost2010Prop40
 90
        0
102
RTVSPost2010PropOp40
 70
     1
102
RTVSPost2010Prop41ColorIndex
 90
       18
102
RTVSPost2010Prop41ColorRGB
 90
        0
102
RTVSPost2010PropOp41
 70
     1
102
RTVSPost2010Prop42
 90
       50
102
RTVSPost2010PropOp42
 70
     1
102
RTVSPost2010Prop43
 90
        3
102
RTVSPost2010PropOp43
 70
     1
102
RTVSPost2010Prop44ColorIndex
 90
        5
102
RTVSPost2010Prop44ColorRGB
 90
      255
102
RTVSPost2010PropOp44
 70
     1
102
RTVSPost2010Prop45
280
     0
102
RTVSPost2010PropOp45
 70
     1
102
RTVSPost2010Prop46
 90
       50
102
RTVSPost2010PropOp46
 70
     1
102
RTVSPost2010Prop47
 90
       50
102
RTVSPost2010PropOp47
 70
     1
102
RTVSPost2010Prop48
 90
       50
102
RTVSPost2010PropOp48
 70
     1
102
RTVSPost2010Prop49
280
     0
102
RTVSPost2010PropOp49
 70
     1
102
RTVSPost2010Prop50
 90
       50
102
RTVSPost2010PropOp50
 70
     1
102
RTVSPost2010Prop51ColorIndex
 90
      256
102
RTVSPost2010Prop51ColorRGB
 90
-16777216
102
RTVSPost2010PropOp51
 70
     0
102
RTVSPost2010Prop52
140
1.0
102
RTVSPost2010PropOp52
 70
     0
102
RTVSPost2010Prop53
 90
        2
102
RTVSPost2010PropOp53
 70
     1
102
RTVSPost2010Prop54
  1
strokes_ogs.tif
102
RTVSPost2010PropOp54
 70
     1
102
RTVSPost2010Prop55
280
     0
102
RTVSPost2010PropOp55
 70
     1
102
RTVSPost2010Prop56
140
1.0
102
RTVSPost2010PropOp56
 70
     1
102
RTVSPost2010Prop57
140
1.0
102
RTVSPost2010PropOp57
 70
     1
102
RTVSPropertyOp0
 70
     1
102
RTVSPropertyOp1
 70
     1
102
RTVSPropertyOp2
 70
     1
102
RTVSPropertyOp3
 70
     1
102
RTVSPropertyOp4
 70
     1
102
RTVSPropertyOp5
 70
     1
102
RTVSPropertyOp6
 70
     1
102
RTVSPropertyOp7
 70
     1
102
RTVSPropertyOp8
 70
     1
102
RTVSPropertyOp9
 70
     1
102
RTVSPropertyOp10
 70
     1
102
RTVSPropertyOp11
 70
     1
102
RTVSPropertyOp12
 70
     1
102
RTVSPropertyOp13
 70
     1
102
RTVSPropertyOp14
 70
     1
102
RTVSPropertyOp15
 70
     1
102
RTVSPropertyOp16
 70
     1
102
RTVSPropertyOp17
 70
     1
102
RTVSPropertyOp18
 70
     1
102
RTVSPropertyOp19
 70
     1
102
RTVSPropertyOp20
 70
     1
102
RTVSPropertyOp21
 70
     1
102
RTVSPropertyOp22
 70
     1
102
RTVSPropertyOp23
 70
     1
102
RTVSPropertyOp24
 70
     1
102
RTVSPropertyOp25
 70
     1
102
RTVSPropertyOp26
 70
     1
102
RTVSPropertyOp27
 70
     1
102
RTVSPropertyOp28
 70
     1
102
RTVSPropertyOp29
 70
     1
102
RTVSPropertyOp30
 70
     1
102
RTVSPropertyOp31
 70
     1
102
RTVSPropertyOp32
 70
     1
102
RTVSPropertyOp33
 70
     1
102
RTVSPropertyOp34
 70
     1
102
RTVSPropertyOp35
 70
     1
102
RTVSPropertyOp36
 70
     1
102
RTVSPropertyOp37
 70
     1
102
RTVSPropertyOp38
 70
     1
102
RTVSPropertyOp39
 70
     1
102
RTVSPropertyOp40
 70
     1
102
RTVSPropertyOp41
 70
     1
102
RTVSPropertyOp42
 70
     1
102
RTVSPropertyOp43
 70
     1
102
RTVSPropertyOp44
 70
     1
102
RTVSPropertyOp45
 70
     1
102
RTVSPropertyOp46
 70
     1
102
RTVSPropertyOp47
 70
     1
102
RTVSPropertyOp48
 70
     1
102
RTVSPropertyOp49
 70
     1
102
RTVSPropertyOp50
 70
     1
102
RTVSPropertyOp51
 70
     0
102
RTVSPropertyOp52
 70
     0
102
RTVSPropertyOp53
 70
     1
102
RTVSPropertyOp54
 70
     1
102
RTVSPropertyOp55
 70
     1
102
RTVSPropertyOp56
 70
     1
102
RTVSPropertyOp57
 70
     1
102
RTVSPropertyOp58
 70
     1
102
RTVSPropertyOp59
 70
     1
102
RTVSPropertyOp60
 70
     1
102
RTVSPropertyOp61
 70
     1
102
RTVSPropertyOp62
 70
     1
  0
XRECORD
  5
1305
102
{ACAD_REACTORS
330
1304
102
}
330
1304
100
AcDbXrecord
280
     1
102
RTVSPost2010Prop28
280
     0
102
RTVSPost2010PropOp28
 70
     1
102
RTVSPost2010Prop29
280
     1
102
RTVSPost2010PropOp29
 70
     1
102
RTVSPost2010Prop30
280
     1
102
RTVSPost2010PropOp30
 70
     1
102
RTVSPost2010Prop31
280
     0
102
RTVSPost2010PropOp31
 70
     1
102
RTVSPost2010Prop32
280
     0
102
RTVSPost2010PropOp32
 70
     1
102
RTVSPost2010Prop33
280
     0
102
RTVSPost2010PropOp33
 70
     1
102
RTVSPost2010Prop34
280
     0
102
RTVSPost2010PropOp34
 70
     1
102
RTVSPost2010Prop35
280
     0
102
RTVSPost2010PropOp35
 70
     1
102
RTVSPost2010Prop36
280
     0
102
RTVSPost2010PropOp36
 70
     1
102
RTVSPost2010Prop37
 90
       50
102
RTVSPost2010PropOp37
 70
     1
102
RTVSPost2010Prop38
140
0.0
102
RTVSPost2010PropOp38
 70
     1
102
RTVSPost2010Prop39
140
1.0
102
RTVSPost2010PropOp39
 70
     1
102
RTVSPost2010Prop40
 90
        0
102
RTVSPost2010PropOp40
 70
     1
102
RTVSPost2010Prop41ColorIndex
 90
       18
102
RTVSPost2010Prop41ColorRGB
 90
        0
102
RTVSPost2010PropOp41
 70
     1
102
RTVSPost2010Prop42
 90
       50
102
RTVSPost2010PropOp42
 70
     1
102
RTVSPost2010Prop43
 90
        3
102
RTVSPost2010PropOp43
 70
     1
102
RTVSPost2010Prop44ColorIndex
 90
        5
102
RTVSPost2010Prop44ColorRGB
 90
      255
102
RTVSPost2010PropOp44
 70
     1
102
RTVSPost2010Prop45
280
     0
102
RTVSPost2010PropOp45
 70
     1
102
RTVSPost2010Prop46
 90
       50
102
RTVSPost2010PropOp46
 70
     1
102
RTVSPost2010Prop47
 90
       50
102
RTVSPost2010PropOp47
 70
     1
102
RTVSPost2010Prop48
 90
       50
102
RTVSPost2010PropOp48
 70
     1
102
RTVSPost2010Prop49
280
     0
102
RTVSPost2010PropOp49
 70
     1
102
RTVSPost2010Prop50
 90
       50
102
RTVSPost2010PropOp50
 70
     1
102
RTVSPost2010Prop51ColorIndex
 90
      256
102
RTVSPost2010Prop51ColorRGB
 90
-16777216
102
RTVSPost2010PropOp51
 70
     0
102
RTVSPost2010Prop52
140
1.0
102
RTVSPost2010PropOp52
 70
     0
102
RTVSPost2010Prop53
 90
        2
102
RTVSPost2010PropOp53
 70
     1
102
RTVSPost2010Prop54
  1
strokes_ogs.tif
102
RTVSPost2010PropOp54
 70
     1
102
RTVSPost2010Prop55
280
     0
102
RTVSPost2010PropOp55
 70
     1
102
RTVSPost2010Prop56
140
1.0
102
RTVSPost2010PropOp56
 70
     1
102
RTVSPost2010Prop57
140
1.0
102
RTVSPost2010PropOp57
 70
     1
102
RTVSPropertyOp0
 70
     1
102
RTVSPropertyOp1
 70
     1
102
RTVSPropertyOp2
 70
     1
102
RTVSPropertyOp3
 70
     1
102
RTVSPropertyOp4
 70
     1
102
RTVSPropertyOp5
 70
     1
102
RTVSPropertyOp6
 70
     1
102
RTVSPropertyOp7
 70
     1
102
RTVSPropertyOp8
 70
     1
102
RTVSPropertyOp9
 70
     1
102
RTVSPropertyOp10
 70
     1
102
RTVSPropertyOp11
 70
     1
102
RTVSPropertyOp12
 70
     1
102
RTVSPropertyOp13
 70
     1
102
RTVSPropertyOp14
 70
     1
102
RTVSPropertyOp15
 70
     1
102
RTVSPropertyOp16
 70
     1
102
RTVSPropertyOp17
 70
     1
102
RTVSPropertyOp18
 70
     1
102
RTVSPropertyOp19
 70
     1
102
RTVSPropertyOp20
 70
     1
102
RTVSPropertyOp21
 70
     1
102
RTVSPropertyOp22
 70
     1
102
RTVSPropertyOp23
 70
     1
102
RTVSPropertyOp24
 70
     1
102
RTVSPropertyOp25
 70
     1
102
RTVSPropertyOp26
 70
     1
102
RTVSPropertyOp27
 70
     1
102
RTVSPropertyOp28
 70
     1
102
RTVSPropertyOp29
 70
     1
102
RTVSPropertyOp30
 70
     1
102
RTVSPropertyOp31
 70
     1
102
RTVSPropertyOp32
 70
     1
102
RTVSPropertyOp33
 70
     1
102
RTVSPropertyOp34
 70
     1
102
RTVSPropertyOp35
 70
     1
102
RTVSPropertyOp36
 70
     1
102
RTVSPropertyOp37
 70
     1
102
RTVSPropertyOp38
 70
     1
102
RTVSPropertyOp39
 70
     1
102
RTVSPropertyOp40
 70
     1
102
RTVSPropertyOp41
 70
     1
102
RTVSPropertyOp42
 70
     1
102
RTVSPropertyOp43
 70
     1
102
RTVSPropertyOp44
 70
     1
102
RTVSPropertyOp45
 70
     1
102
RTVSPropertyOp46
 70
     1
102
RTVSPropertyOp47
 70
     1
102
RTVSPropertyOp48
 70
     1
102
RTVSPropertyOp49
 70
     1
102
RTVSPropertyOp50
 70
     1
102
RTVSPropertyOp51
 70
     0
102
RTVSPropertyOp52
 70
     0
102
RTVSPropertyOp53
 70
     1
102
RTVSPropertyOp54
 70
     1
102
RTVSPropertyOp55
 70
     1
102
RTVSPropertyOp56
 70
     1
102
RTVSPropertyOp57
 70
     1
102
RTVSPropertyOp58
 70
     1
102
RTVSPropertyOp59
 70
     1
102
RTVSPropertyOp60
 70
     1
102
RTVSPropertyOp61
 70
     1
102
RTVSPropertyOp62
 70
     1
  0
XRECORD
  5
131D
102
{ACAD_REACTORS
330
131C
102
}
330
131C
100
AcDbXrecord
280
     1
102
RTVSPost2010Prop28
280
     0
102
RTVSPost2010PropOp28
 70
     1
102
RTVSPost2010Prop29
280
     1
102
RTVSPost2010PropOp29
 70
     1
102
RTVSPost2010Prop30
280
     1
102
RTVSPost2010PropOp30
 70
     1
102
RTVSPost2010Prop31
280
     0
102
RTVSPost2010PropOp31
 70
     1
102
RTVSPost2010Prop32
280
     0
102
RTVSPost2010PropOp32
 70
     1
102
RTVSPost2010Prop33
280
     0
102
RTVSPost2010PropOp33
 70
     1
102
RTVSPost2010Prop34
280
     0
102
RTVSPost2010PropOp34
 70
     1
102
RTVSPost2010Prop35
280
     0
102
RTVSPost2010PropOp35
 70
     1
102
RTVSPost2010Prop36
280
     0
102
RTVSPost2010PropOp36
 70
     1
102
RTVSPost2010Prop37
 90
       50
102
RTVSPost2010PropOp37
 70
     1
102
RTVSPost2010Prop38
140
0.0
102
RTVSPost2010PropOp38
 70
     1
102
RTVSPost2010Prop39
140
1.0
102
RTVSPost2010PropOp39
 70
     1
102
RTVSPost2010Prop40
 90
        0
102
RTVSPost2010PropOp40
 70
     1
102
RTVSPost2010Prop41ColorIndex
 90
       18
102
RTVSPost2010Prop41ColorRGB
 90
        0
102
RTVSPost2010PropOp41
 70
     1
102
RTVSPost2010Prop42
 90
       50
102
RTVSPost2010PropOp42
 70
     1
102
RTVSPost2010Prop43
 90
        3
102
RTVSPost2010PropOp43
 70
     1
102
RTVSPost2010Prop44ColorIndex
 90
        5
102
RTVSPost2010Prop44ColorRGB
 90
      255
102
RTVSPost2010PropOp44
 70
     1
102
RTVSPost2010Prop45
280
     0
102
RTVSPost2010PropOp45
 70
     1
102
RTVSPost2010Prop46
 90
       50
102
RTVSPost2010PropOp46
 70
     1
102
RTVSPost2010Prop47
 90
       50
102
RTVSPost2010PropOp47
 70
     1
102
RTVSPost2010Prop48
 90
       50
102
RTVSPost2010PropOp48
 70
     1
102
RTVSPost2010Prop49
280
     0
102
RTVSPost2010PropOp49
 70
     1
102
RTVSPost2010Prop50
 90
       50
102
RTVSPost2010PropOp50
 70
     1
102
RTVSPost2010Prop51ColorIndex
 90
      256
102
RTVSPost2010Prop51ColorRGB
 90
-16777216
102
RTVSPost2010PropOp51
 70
     0
102
RTVSPost2010Prop52
140
1.0
102
RTVSPost2010PropOp52
 70
     0
102
RTVSPost2010Prop53
 90
        2
102
RTVSPost2010PropOp53
 70
     1
102
RTVSPost2010Prop54
  1
strokes_ogs.tif
102
RTVSPost2010PropOp54
 70
     1
102
RTVSPost2010Prop55
280
     0
102
RTVSPost2010PropOp55
 70
     1
102
RTVSPost2010Prop56
140
1.0
102
RTVSPost2010PropOp56
 70
     1
102
RTVSPost2010Prop57
140
1.0
102
RTVSPost2010PropOp57
 70
     1
102
RTVSPropertyOp0
 70
     1
102
RTVSPropertyOp1
 70
     1
102
RTVSPropertyOp2
 70
     1
102
RTVSPropertyOp3
 70
     1
102
RTVSPropertyOp4
 70
     1
102
RTVSPropertyOp5
 70
     1
102
RTVSPropertyOp6
 70
     1
102
RTVSPropertyOp7
 70
     1
102
RTVSPropertyOp8
 70
     1
102
RTVSPropertyOp9
 70
     1
102
RTVSPropertyOp10
 70
     1
102
RTVSPropertyOp11
 70
     1
102
RTVSPropertyOp12
 70
     1
102
RTVSPropertyOp13
 70
     1
102
RTVSPropertyOp14
 70
     1
102
RTVSPropertyOp15
 70
     1
102
RTVSPropertyOp16
 70
     1
102
RTVSPropertyOp17
 70
     1
102
RTVSPropertyOp18
 70
     1
102
RTVSPropertyOp19
 70
     1
102
RTVSPropertyOp20
 70
     1
102
RTVSPropertyOp21
 70
     1
102
RTVSPropertyOp22
 70
     1
102
RTVSPropertyOp23
 70
     1
102
RTVSPropertyOp24
 70
     1
102
RTVSPropertyOp25
 70
     1
102
RTVSPropertyOp26
 70
     1
102
RTVSPropertyOp27
 70
     1
102
RTVSPropertyOp28
 70
     1
102
RTVSPropertyOp29
 70
     1
102
RTVSPropertyOp30
 70
     1
102
RTVSPropertyOp31
 70
     1
102
RTVSPropertyOp32
 70
     1
102
RTVSPropertyOp33
 70
     1
102
RTVSPropertyOp34
 70
     1
102
RTVSPropertyOp35
 70
     1
102
RTVSPropertyOp36
 70
     1
102
RTVSPropertyOp37
 70
     1
102
RTVSPropertyOp38
 70
     1
102
RTVSPropertyOp39
 70
     1
102
RTVSPropertyOp40
 70
     1
102
RTVSPropertyOp41
 70
     1
102
RTVSPropertyOp42
 70
     1
102
RTVSPropertyOp43
 70
     1
102
RTVSPropertyOp44
 70
     1
102
RTVSPropertyOp45
 70
     1
102
RTVSPropertyOp46
 70
     1
102
RTVSPropertyOp47
 70
     1
102
RTVSPropertyOp48
 70
     1
102
RTVSPropertyOp49
 70
     1
102
RTVSPropertyOp50
 70
     1
102
RTVSPropertyOp51
 70
     0
102
RTVSPropertyOp52
 70
     0
102
RTVSPropertyOp53
 70
     1
102
RTVSPropertyOp54
 70
     1
102
RTVSPropertyOp55
 70
     1
102
RTVSPropertyOp56
 70
     1
102
RTVSPropertyOp57
 70
     1
102
RTVSPropertyOp58
 70
     1
102
RTVSPropertyOp59
 70
     1
102
RTVSPropertyOp60
 70
     1
102
RTVSPropertyOp61
 70
     1
102
RTVSPropertyOp62
 70
     1
  0
ENDSEC
  0
EOF
